tablaturas, partituras y acordes para guitarra
Busca por banda/artista:
 
y/o título de la canción:
A B C D E F G H I J K L M N O P Q R S T U V W X Y Z 0 1 2 3 4 5 6 7 8 9 / Top 100 tabs
Categorías
Usuarios
usuario:
Darse de alta
password:
Artistas más visitados
Publicidad
TOP acordes y tablaturas de Aleks Syntek


Tuve Angeles
de Aleks Syntek
Puntúa este acorde/tab:      
(0.8/5)
Reportar este acorde/tab
  Añadir a tus favoritos
  Imprimir

[NOTA: son nada mas los acordes sin rasgueo, escuchen la rola para que se acomoden]  



[intro]

    /  ////     /  ////       /  ////   /  //// 

    G           Dsus2/G       D  Dsus4  D  Dsus4
e---3-------------2-----------2---3-----2---3------------
B---3-------------3-----------3---3-----3---3------------
G---0-------------0-----------2---2-----2---2------------
D---0-------------0-----------0---------0---0------------
A---2-------------x--------------------------------------
E---3-------------3--------------------------------------  [2x]

        G             Dsus2/G         D  Dsus4  D				     

Le tuve miedo a la obscuridad         
tuve que caminar con anciedad
tuve que verme al espejo para preguntarme si estaba bien
hacer mil intentos para aceptarme tal y como soy

   G         Asus4/G   G         Asus4/G     G  Asus4/G     G  Asus4/G
 --3-----------3-------3----------3----------------------------------------
 --3-----------3-------3----------3-----------[MISMOS ACORDES]-------------
 --0-----------2-------0----------2----------------------------------------
 --0-----------2-------0----------2----------------------------------------
 --2-----------0-------2----------0----------------------------------------
 --3-------------------3---------------------------------------------------
   como soy,           como soy



[coro]

      Dsus/G          Asus4            Em7
  ----0---------------0----------------0--------------
  ----3---------------3----------------3--------------
  ----2---------------2----------------0--------------
  ----0---------------2----------------2--------------
  ----x---------------0----------------2--------------
  ----3---------------x----------------0--------------
 tuve angeles volando cerca a mi alrededor

    Dsus/G             Asus4/G         Em
y demonios que nunca dejaron de suceder

      Dsus/G               Asus4             Em7
los recuerdos de historias pasadas sin ver dolor

      Dsus/G            Asus4          Em
las cenizas de nuestros viejos cuidandonos


[break]

    G           Dsus2/G       D  Dsus4  D  Dsus4
e---3-------------2-----------2---3-----2---3------------
B---3-------------3-----------3---3-----3---3------------
G---0-------------0-----------2---2-----2---2------------
D---0-------------0-----------0---------0---0------------
A---2-------------x--------------------------------------
E---3-------------3--------------------------------------  [2x]


[verso]
                                [2220xx]
         G         Dsus2/G      Dmaj7

tuve mis fondos de soledad
estuve llorando sin descansar
tuve que verme al espejo para preguntarme si estaba bien
hacer mil intentos para aceptarme tal y como soy 


   G         Asus4/G   G         Asus4/G     G  Asus4/G     G  Asus4/G
 --3-----------3-------3----------3----------------------------------------
 --3-----------3-------3----------3-----------[MISMOS ACORDES]-------------
 --0-----------2-------0----------2----------------------------------------
 --0-----------2-------0----------2----------------------------------------
 --2-----------0-------2----------0----------------------------------------
 --3-------------------3---------------------------------------------------
   como soy,           como soy


[coro]

      Dsus/G          Asus4            Em7
  ----0---------------0----------------0--------------
  ----3---------------3----------------3--------------
  ----2---------------2----------------0--------------
  ----0---------------2----------------2--------------
  ----x---------------0----------------2--------------
  ----3---------------x----------------0--------------
 tuve angeles volando cerca a mi alrededor

    Dsus/G             Asus4/G         Em
y demonios que nunca dejaron de suceder

      Dsus/G               Asus4             Em7
los recuerdos de historias pasadas sin ver dolor

      Dsus/G            Asus4          Em
las cenizas de nuestros viejos cuidandonos


[break]

	  G      Dsus2/G       Dsus4 - D   [4x]   


[coro]

      Dsus/G          Asus4            Em7
  ----0---------------0----------------0--------------
  ----3---------------3----------------3--------------
  ----2---------------2----------------0--------------
  ----0---------------2----------------2--------------
  ----x---------------0----------------2--------------
  ----3---------------x----------------0--------------
 tuve angeles volando cerca a mi alrededor

    Dsus/G             Asus4/G         Em
y demonios que nunca dejaron de suceder

      Dsus/G               Asus4             Em7
los recuerdos de historias pasadas sin ver dolor

      Dsus/G            Asus4          Em
las cenizas de nuestros viejos cuidandonos


[se repite]

	  G      Dsus2/G       Dsus4 - D 


[termina con un rasgueo]

     G
 ----x------------
 ----3------------
 ----0------------
 ----0------------
 ----x------------
 ----3------------
		   
AcordesyTabs.com © 2008 Acordes y Tablaturas para guitarra. Tabs and Chords for guitar. Aviso Legal - Contacto
El uso de este sitio está sujeto a la aceptación de los términos y condiciones (29 usuarios online)