tablaturas, partituras y acordes para guitarra
Busca por banda/artista:
 
y/o título de la canción:
A B C D E F G H I J K L M N O P Q R S T U V W X Y Z 0 1 2 3 4 5 6 7 8 9 / Top 100 tabs
Categorías
Usuarios
usuario:
Darse de alta
password:
Artistas más visitados
Publicidad
TOP acordes y tablaturas de Katarro Vandaliko


Obrero
de Katarro Vandaliko
Puntúa este acorde/tab:      
(0.5/5)
Reportar este acorde/tab
  Añadir a tus favoritos
  Imprimir
Corrección del tab que ya está en la pag.

Intro

G-----8-8-7-----8-8-7-5-5-5-5-5-5-5-7-7-8-
D-6-6-------5-5---------------------------
A-----------------------------------------
E-----------------------------------------(x4)

Puente (antes de verso)

G------------
D-5----------
A--6-5-------
E------------

G------------------------------------
D---------------5------------5-------
A-----6-6-5-------5-3-3-3-3----6-5-3-
E-4-4-------3-3----------------------(x4)

Verso.......'¿Qué pasa...?'

G--------------------------------------------------
D--------------------------------------------0-0-1-
A-----6-6-5-----6-6-5--3-1-1-3-3-1-1-3-3-1-1-------
E-4-4-------3-3------------------------------------(x4)

Estribillo

G----------
D----------
A----------
E--4--3----

G-------------6------------
D-4(x6)--6(x6)--6------4-6-
A-----------------4(x8)----
E--------------------------(x4)


Orden en la cancion

1. Intro
2. Puente
3. Verso
4. Estribillo
5. Puente
6. Verso
7. Estribillo (antes de pasar al final se cuelga en A---4----)
8. Final (hace 4 veces lo que hace en el verso y 6 lo que hace en el intro)

Y al final........

G-5-7-8-7-5-7-8-5-7-8----5--
D---------------------------
A---------------------------
E---------------------------
		   
AcordesyTabs.com © 2008 Acordes y Tablaturas para guitarra. Tabs and Chords for guitar. Aviso Legal - Contacto
El uso de este sitio está sujeto a la aceptación de los términos y condiciones (23 usuarios online)