tablaturas, partituras y acordes para guitarra
Busca por banda/artista:
 
y/o título de la canción:
A B C D E F G H I J K L M N O P Q R S T U V W X Y Z 0 1 2 3 4 5 6 7 8 9 / Top 100 tabs
Categorías
Usuarios
usuario:
Darse de alta
password:
Artistas más visitados
Publicidad
TOP acordes y tablaturas de Pastilla


Ultraman
de Pastilla
Puntúa este acorde/tab:      
(0.7/5)
Reportar este acorde/tab
  Añadir a tus favoritos
  Imprimir

x - esa cuerda no suena
* - cejilla

la      577xxx *
re      5577xx *
sol     355xxx *
do      3355xx *
si      2244xx *

**ARREGLO BAJO**

1a------------------------------------------------
2a------------------------------------------------
3a------------------------------------------------ 
4a------------------------------------------------ 
5a--0--0--0--0--2--3--5--5--5--5--7--5--2--0------ 
6a------------------------------------------------ 

1a------------------------------------------------ 
2a------------------------------------------------ 
3a------------------------------------------------ 
4a------------------------------------------------ 
5a--------------0--2--3--3--3--3--2--3--2--0--0--- 
6a--3--3--3--3------------------------------------

 **ARREGLO GUITARRA**
1a----------------------------------------------------------------- 
2a-----------------8--10--10--8--10-------------------------------- 
3a--9--9--9--7--9--------------------7--------7--------7--------7-- 
4a--------------------------------------7--9-----7--9-----7--9----- 
5a----------------------------------------------------------------- 
6a-----------------------------------------------------------------

1a----------------------------------------------10----------------- 
2a-----------------8--10--10--8--10--8--10--12------12--10------10- 
3a--9--9--9--7--9-------------------------------------------12----- 
4a----------------------------------------------------------------- 
5a----------------------------------------------------------------- 
6a-----------------------------------------------------------------

**ARREGLO 1**

1a---------------------------------------------------------------- 
2a-----------------8--7--8--7------------------------------------- 
3a--9--9--9--7--9--------------9--8--7--------7--------7--------7- 
4a--------------------------------------7--9-----7--9-----7--9---- 
5a---------------------------------------------------------------- 
6a---------------------------------------------------------------- 

1a---------------------------------------------------------------- 
2a-----------------8--7--8--7------------------------------------- 
3a--9--9--9--7--9--------------9--8--7--------7--------7--------7- 
4a--------------------------------------7--9-----7--9-----7--9---- 
5a---------------------------------------------------------------- 
6a----------------------------------------------------------------

la    re            sol
Me robaste el interior
      do    si   la
me dejaste tu dolor
            re           sol 
te has marchado al ultraman
       do     si   la
te fuiste sin avisar       
      re         sol
yo jamas me imagine
       do    si     la
en quedarme donde estoy
      re            sol
sin palabras sin razon       

      do     si    la     re     sol
yo me voy al ultraman 

(**ARREGLO 1**)

(**ARREGLO GUITARRA**)       

do     si    la     re     sol     do     si
yo me voy al ultraman 

(**ARREGLO 1**)

(**ARREGLO GUITARRA**)

la     re      sol       do     si

la     re             sol
Ahora que todo es normal 
           do    si   la
no me he vuelto a soñar         
        re         sol
tal vez lo conseguire
      do      si   la     re    sol
ese viaje al ultraman 

(**ARREGLO 1**)

(**ARREGLO GUITARRA**)

       do      si   la     re    sol     
do      si
ese viaje al ultraman 

(**ARREGLO 1**)

(**ARREGLO GUITARRA**)

la    re    sol    do    si

do                 sol
Mira que nada es igual
do                    sol
cuando cuando tu no estas
     re    do    re
me dijo un avestruz
do     si    la     sol
cuando me miro marchar
do     si    la     sol
cuando me miro marchar 

**la segunda parte se toca igual que la primera**


Ahora que todo es normal, 
no me he vuelto a imaginar
sin palabras sin razon, yo 
me voy al ultraman
yo me voy al ultraman

Mira que nada es igual, 
cuando cuando tu no estas 
me dijo un avestruz, cuando 
me miro marchar 
cuando me miro marchar....

cuando me miro marchar....

cuando me miro marchar. 
		   
AcordesyTabs.com © 2008 Acordes y Tablaturas para guitarra. Tabs and Chords for guitar. Aviso Legal - Contacto
El uso de este sitio está sujeto a la aceptación de los términos y condiciones (26 usuarios online)