tablaturas, partituras y acordes para guitarra
Busca por banda/artista:
 
y/o título de la canción:
A B C D E F G H I J K L M N O P Q R S T U V W X Y Z 0 1 2 3 4 5 6 7 8 9 / Top 100 tabs
Categorías
Usuarios
usuario:
Darse de alta
password:
Artistas más visitados
Publicidad
TOP acordes y tablaturas de Divididos


Estás en: Inicio > Letra D > Acordes y tablaturas de Divididos > Un alegre en este infierno
Un alegre en este infierno
de Divididos
Puntúa este acorde/tab:      
(0.1/5)
Reportar este acorde/tab
  Añadir a tus favoritos
  Imprimir
Bueno aca les mando la super correccion de la otra tablatura q mande.

INTRO: guitarra..

Riff 1:A              Riff 2:B
|------------------|--------------------------------------|
|------------------|---------7-10-7---9---7---------------|
|---5--3--0--2--3--|--5---7---------7---7---5-------------|
|------------------|----------------------------3-5-3-0---|

Riff 3:C
|-------------|
|-------------|
|-5-7--3-5----|
|-----------5-|

Riff 4:D
|--------------------------------------------|
|---------7-10-7-----------------------------| x2
|--5---7---------7---17-18-19-20-20-19-18-17-|
|--------------------------------------------|

|---------------------------------------|  |-----------------|
|---------------------------------------|x2|-----------------|
|-7/14-14/7--7/14-14/7--14141414141414--|  |--7/14-7/14-7/14-|
|---------------------------------------|  |-----------------|

Cuando dice 'futuros y pasados' hace una modificacion en el Riff 2:

|-------------7h9-7--------------------|
|--------7-10-------9---7--------------|
|--5---7--------------7---5------------|
|-----------------------------3-5-3-0--|

(A)

(B) Un pueblo de egos solos
(B) buscandose en la oscuridad
(B) a estos hombres triztes
(C) por favor no dejen de amar..

(A)

(B)Por aca no pasaran
(B)el hambre q tu sueño robo
(B)simplemente imagina
(B)un alegre en este infierno

(A)
(D)
(A)

(E)futuros y pasados
(B)te roban el presente
(B)un mundo sin sopapa
(C)a q hora vuele la luz?

(B)q no roben tus sueños
(C)y por aca no pasaran

(A)| Repetir estos riff hasta
(D)| q termine el tema....
(A)|

bueno espero q se entienda y les funcione.un 
saludo a los divididos y a mis amigos..suerte
		   
AcordesyTabs.com © 2008 Acordes y Tablaturas para guitarra. Tabs and Chords for guitar. Aviso Legal - Contacto
El uso de este sitio está sujeto a la aceptación de los términos y condiciones (23 usuarios online)