tablaturas, partituras y acordes para guitarra
Busca por banda/artista:
 
y/o título de la canción:
A B C D E F G H I J K L M N O P Q R S T U V W X Y Z 0 1 2 3 4 5 6 7 8 9 / Top 100 tabs
Categorías
Usuarios
usuario:
Darse de alta
password:
Artistas más visitados
Publicidad
TOP acordes y tablaturas de Silvio Rodriguez


Estás en: Inicio > Letra S > Acordes y tablaturas de Silvio Rodriguez > Oleo de mujer con sombrero
Oleo de mujer con sombrero
de Silvio Rodriguez
Puntúa este acorde/tab:      
(0.1/5)
Reportar este acorde/tab
  Añadir a tus favoritos
  Imprimir
Es mi primer tablatura que he decidido publicar.

INTRO:

 Do              Rem                  Mim (Mim7)    Fa     Sol
|----0--0-------|------1--1p0-------|-------|-0---|------|------|-----1----------------|
|-1--------1----|----3---------3----|----0--3--0--|----1-|----0-|----0-0------0-----0--|
|--0--0---0--0--|---2---0-----2--2--|---0-------0-|---2--|---0--|-0h2---2----0-0---0---|
|-------------2-|-0-------0-------0-|--2--2--2----|------|------|---------0h2---2-0--0-|
|-3-----3-------|-------------------|-------------|------|------|----------------------|
|---------------|-------------------|-0-----0-----|-1----|-3----|-3-------3-------3----|


 Do              Rem                  Mim (Mim7)    Fa     Sol    Sol7
|--------0------|------1--1p0-------|-------|-0---|------|------|-----1----------------|
|-----1----1----|----3---------3----|----0--3--0--|----1-|----0-|----0-0------0-----0--|
|---(0)---0--0--|---2---0-----2--2--|---0-------0-|---2--|---0--|-0h2---2----0-0---0---|
|--2---0------2-|-0-------0-------0-|--2--2--2----|------|------|---------0h2---2-0--0-|
|-3------3------|-------------------|-------------|------|------|----------------------|
|---------------|-------------------|-0-----0-----|-1----|-3----|-3-------3-------3----|

ESTROFA:

 Do              Rem                  Mim (Mim7)    Fa             Sol          
|--------0------|------1--1p0-------|-------|-0---|--------1-----|--------------|
|-----1----1----|----3---------3----|----0--3--0--|-----1-----1--|----0-----0---|
|---(0)---0--0--|---2---0-----2--2--|---0-------0-|----2-----2---|---0--0--0--0-|
|--2---0------2-|-0-------0-------0-|--2--2--2----|---3--3--3--3-|--0--0--0--0--|
|-3------3------|-------------------|-------------|--------------|--------------|
|---------------|-------------------|-0-----0-----|-1------1-----|-3-----3------|

 Cmaj7(*)   Fa        *         Mi        Lam      Lam/sol  Fa       Sol      Do
|---------|---------|---------|---------|--------|--------|--------|--------|------|
|-----0---|-----1---|-----0---|-----0---|-----1--|-1---1--|-----1--|-----0--|----1-|
|----0--0-|----2--2-|----2--2-|----1--1-|----2---|----2---|----2---|----0---|---0--|
|---2--2--|---3--3--|---0--0--|---2--2--|---2--2-|---2--2-|---3--3-|---0--0-|--2---|
|-3-------|---------|-2-------|---------|-0------|--------|--------|--------|-3----|
|---------|-1-------|---------|-0-------|--------|-3------|-1------|-3------|------|
                                                                             
  Do/Si  Lam    Lam/Sol  Fa    Re/Fa#  Sol     Sol7                         
|------|------|------|-------|----2--|-------|-----1---|      *020200
|----1-|----1-|----1-|----1--|---3---|-----0-|----0-0--|  Cmaj7032000
|---2--|---2--|---2--|---2---|--2--2-|---0---|-0h2---2-|
|--0---|--2---|--2---|--3--3-|-------|-------|---------|
|-2----|-0----|------|-------|-------|-------|---------|
|------|------|-3----|-1-----|-2-----|-3-----|-3-------|  

El final:

Se repite tres veces
 Do     Do/Si  Lam    Lam/Sol  Fa     Sol
|------|------|------|------|-------|-------|
|----1-|----1-|----1-|----1-|----1--|----0--|
|---0--|---2--|---2--|---2--|---2---|---0---|
|--2---|--0---|--2---|--2---|--3--3-|--0--0-|
|-3----|-2----|-0----|------|-------|-------|
|------|------|------|-3----|-1-----|-3-----|

Esta es la parte lenta y el final

Do     Do/Si  Lam    Lam/Sol  Fa     Sol      Do(rasgeo)
|------|------|------|-------|------|--------|-0-|
|----1-|----1-|----1-|---1---|---1--|--0p1---|-1-|
|---0--|---2--|---2--|----2--|----2-|-----0--|-0-|
|--2---|--0---|--2---|--2----|--3---|------0-|-2-|
|-3----|-2----|-0----|-------|------|--------|-3-|
|------|------|------|-3-----|-1----|-3------|---|


Una mujer se ha perdido
conocer el delirio y el polvo,
se ha perdido esta bella locura,
su breve cintura debajo de mí.
Se ha perdido mi forma de amar,
se ha perdido mi huella en su mar.
     
Veo una luz que vacila
y promete dejarnos a oscuras.
Veo un perro ladrando a la luna
con otra figura que recuerda a mí.
Veo más: veo que no me halló.
Veo más: veo que se perdió.
     
Una mujer innombrable
huye como una gaviota
y yo rápido seco mis botas,
blasfemo una nota y apago el reloj.
Que me tenga cuidado el amor,
que le puedo cantar su canción.
 
La cobardía es asunto
de los hombres, no de los amantes.
Los amores cobardes no llegan a amores,
ni a historias, se quedan allí.
Ni el recuerdo los puede salvar,
ni el mejor orador conjugar.
  
Una mujer con sombrero,
como un cuadro del viejo Chagall,
corrompiéndose al centro del miedo
y yo, que no soy bueno, me puse a llorar.
/: Pero entonces lloraba por mí,
y ahora lloro por verla morir. :/

Cualquier duda arriba aparece mi E-mail si quieren bajar la pista
de audio para que no se pierdan la direccion es http://mx.geocities.com/oro_x
Para mi es mas exacta que las demas ustedes lo sabran si bajan el audio.

Y que le vante la mano la guitarra!!!!!!!!!!!
		   
AcordesyTabs.com © 2008 Acordes y Tablaturas para guitarra. Tabs and Chords for guitar. Aviso Legal - Contacto
El uso de este sitio está sujeto a la aceptación de los términos y condiciones (22 usuarios online)