tablaturas, partituras y acordes para guitarra
Busca por banda/artista:
 
y/o título de la canción:
A B C D E F G H I J K L M N O P Q R S T U V W X Y Z 0 1 2 3 4 5 6 7 8 9 / Top 100 tabs
Categorías
Usuarios
usuario:
Darse de alta
password:
Artistas más visitados
Publicidad
TOP acordes y tablaturas de Pettinellis


Estás en: Inicio > Letra P > Acordes y tablaturas de Pettinellis > Un Hombre Muerto en el Ring
Un Hombre Muerto en el Ring
de Pettinellis
Puntúa este acorde/tab:      
(0.8/5)
Reportar este acorde/tab
  Añadir a tus favoritos
  Imprimir
Artist: Los Petinellis
Song: Un hombre muerto en un ring
Transcripted by: Jürgen Schulmeister


Fifth chords / notas quintas
B5                  D5               A5                  E
---------------/-----------------/---------------/--------------------------------
---------------/-----------------/---------------/-------------------------------
---4-----------/----7------------/---------------/-------------------------------
---4-----------/----7------------/-----7---------/------2---------------------------
---2-----------/----5------------/-----7---------/------2--------------------------
---------------/-----------------/-----5---------/---------------------------------
(*)
-------------------------------/------------------------------------------------
-------------------------------/-----------------------------------------------
-------------------------------/---------------------------------------------
-------------------------------/---------------------------------------------
------------7---5--------------/----------------------------------------------
----5----8---------8---5---8---/-----------------------------------------------------


*A5						       *D5
Un hombre muerto en el ring, sin reclamos llueven lagrimas
				E                  A5
Su cuerpo resbala en el suelo,  pero se secara bajo tierra

Un hombre muerto en el ring, se hacen agua los ojos
El suelo eterna compañía, pero se secara bajo tierra

D5			  A5
Golpe seco brazos empapados, se resbalan en el suelo
    E		      B5                    E
  No esperaba, no esperaba, encontrarte en mi ataúd


*A5					        *D5
Un hombre muerto en el ring, se hacen agua los ojos
			    E                     A5
El suelo eterna compañía, pero se secara bajo tierra


Golpe seco..../ 2 veces

Solo

Un hombre muerto en el ring, se hacen agua los ojos
El suelo eterna compañía
E                 A5
Pero se secara bajo tierra/ 3 veces

Pero se secara bajo tierra




Solo

---------------------------------------------------------------------------------------
----------------------------------------------------------------------------------------
------------9----7-------------7/9--7/9--(x3)----------9----7----------------9--10--7---
---7---10----------10--7--10-------------------7---10----------10--7--10---------------
--------------------------------------------------------------------------------------
---------------------------------------------------------------------------------------

------------------------------------------------------------------------------------------------
--------------------------------------------------------------------------------------------
-10-9--10-9-(-10--9-muchas veces-many-times-)--10-9-10/16-16-15-16-16/19-19-18-19-....--1910---
----------------------------------------------------------------------------------------------
------------------------------------------------------------------------------------------------
--------------------------------------------------------------------------------------------------
		   
AcordesyTabs.com © 2008 Acordes y Tablaturas para guitarra. Tabs and Chords for guitar. Aviso Legal - Contacto
El uso de este sitio está sujeto a la aceptación de los términos y condiciones (59 usuarios online)