tablaturas, partituras y acordes para guitarra
Busca por banda/artista:
 
y/o título de la canción:
A B C D E F G H I J K L M N O P Q R S T U V W X Y Z 0 1 2 3 4 5 6 7 8 9 / Top 100 tabs
Categorías
Usuarios
usuario:
Darse de alta
password:
Artistas más visitados
Publicidad
TOP acordes y tablaturas de Janes Addiction


True Nature
de Janes Addiction
Puntúa este acorde/tab:      
(0.4/5)
Reportar este acorde/tab
  Añadir a tus favoritos
  Imprimir
#----------------------------------PLEASE NOTE---------------------------------#
#This file is the author's own work and represents their interpretation of the #
#song. You may only use this file for private study, scholarship, or research. #
#------------------------------------------------------------------------------#

From: Giles Harding 

                        True Nature - Jane's Addiction
                     ---------------------------------


                                     tabbed by Giles.Harding
                                     gilesharding1977@hotmail.com



The most important thing is to emulate the choppy rhythm, oh yeah and set to dro


E------------------------------------|----------------------------------
B------------------------------------|----------------------------------
G------------------------------------|----------------------------------
D------------------------------------|----------------------------------
A----0-0-3-2-0-0----5-p-3-0-0--3-2-0-|-0-0-3-2-0-0----5-p-3-0-0--3-2-0--
D----0-0-3-2-0-0--0-------0-0--3-2-0-|-0-0-3-2-0-0--0-------0-0--3-2-0--



Pre-Chorus : You have choices about where to mute the strings, either

E--------------------                           E--------------------
B--------------------                B--------------------
G--------------------                G--------------------
D-----0pm-|||-0------                D-----<12>-----------
A-----0pm-|||-0------                A-----<12>-----------
D-----0pm-|||-0------             or        D-----<12>-----------
                                                         harmonic


As usual the most imortant thing is to listen to the song for the rhythm 
and timings

Chorus: Play in this way to emulate bass and guitar part together or
        experiment with positions.

E------------------------------------
B------------------------------------
G-----12----11----10---0-------------
D-----0-----0-----0----10------------
A-----0-----0-----0----0-------------
D-----12----12----12---12------------
      



Riff 3   ....oh!                  ....mother f.....

E-----------(21)--slow bend-------------------------
B---------------------------------------------------
G---------------------------------------------------
D----0-------------------------------0pm------------
A----0-------------------------------0pm------------
D----0-------------------------------0pm------------
       Let ring


Slow bit: Again is based around those blues notes

E------------------------------------
B------------------------------------
G-----12----11----10-----------------
D-----0-----0-----0----10------------
A-----0-----0-----0----0-------------
D-----0-----0-----0----0-------------

Thats about it, email me with any suggestions


Giles



AcordesyTabs.com © 2008 Acordes y Tablaturas para guitarra. Tabs and Chords for guitar. Aviso Legal - Contacto
El uso de este sitio está sujeto a la aceptación de los términos y condiciones (26 usuarios online)