tablaturas, partituras y acordes para guitarra
Busca por banda/artista:
 
y/o título de la canción:
A B C D E F G H I J K L M N O P Q R S T U V W X Y Z 0 1 2 3 4 5 6 7 8 9 / Top 100 tabs
Categorías
Usuarios
usuario:
Darse de alta
password:
Artistas más visitados
Publicidad
TOP acordes y tablaturas de Pastilla


Estás en: Inicio > Letra P > Acordes y tablaturas de Pastilla > Onda Radial
Onda Radial
de Pastilla
Puntúa este acorde/tab:      
(0.4/5)
Reportar este acorde/tab
  Añadir a tus favoritos
  Imprimir
INTRO
e------------------------------------------------------------------------
B------------------------------------------------------------------------
G------------------------------------------------------------------------
D--------------5-7--7-7-7--9-11---------------5-7-7-7-7--5---------------x2
A--5-5-5-5-5--7-------------------5-5-5-5-5--7-------------7-5-----------
E------------------------------------------------------------------------

e------------------------------------------------------------------------------------
B------------------------------------------------------------------------------------
G--7-7-7-7-7-----------------------7-7-7-7-7-----------------------7-7-7-7-7---------
D--7-7-7-7-7--4-5------------------7-7-7-7-7--4-5------------------7-7-7-7-7--4-5----
A--5-5-5-5-5--4-5------------------5-5-5-5-5--4-5------------------5-5-5-5-5--4-5----
E-------------2-3-----------------------------2-3-----------------------------2-3----
                 nos transportaron...            hasta el ombligo...             y nos dejaron...

                                  distorcion
e------------------------------------------------------------------------------------
B------------------------------------------------------------------------------------
G--7-7-7-7-7-----------------------7-7-7-7-7-----------------------7-7-7-7-7---------
D--7-7-7-7-7--4-5------------------7-7-7-7-7--4-5------------------7-7-7-7-7--4-5----
A--5-5-5-5-5--4-5------------------5-5-5-5-5--4-5------------------5-5-5-5-5--4-5----
E-------------2-3-----------------------------2-3-----------------------------2-3----
                 en una onda radial...           en una onda radial...           en una onda radial...

                                                       
e------------------------------------------------------------------------------------
B------------------------------------------------------------------------------------
G--7-7-7-7-7-----------------------7-7-7-7-7-----------------------7-7-7-7-7---------
D--7-7-7-7-7--4-5------------------7-7-7-7-7--4-5------------------7-7-7-7-7--4-5----
A--5-5-5-5-5--4-5------------------5-5-5-5-5--4-5------------------5-5-5-5-5--4-5----
E-------------2-3-----------------------------2-3-----------------------------2-3----
                 en una onda radial...           nos permitieron...              hasta el domingo...
                                                               
e------------------------------------------------------------------------------------
B------------------------------------------------------------------------------------
G--7-7-7-7-7-----------------------7-7-7-7-7-----------------------7-7-7-7-7---------
D--7-7-7-7-7--4-5------------------7-7-7-7-7--4-5------------------7-7-7-7-7--4-5----
A--5-5-5-5-5--4-5------------------5-5-5-5-5--4-5------------------5-5-5-5-5--4-5----
E-------------2-3-----------------------------2-3-----------------------------2-3----
                 y estoy viajando...             en este clima infernal...

e------------------------------------------------------------------------------------
B------------------------------------------------------------------------------------
G--5-----------4-------------------------------7-7-7-7-7-7---------------------------
D--5-----------4----------------7-7-7-7-7-7-7--7-7-7-7-7-7---------------------------
A--3-----------2----------------7-7-7-7-7-7-7--5-5-5-5-5-5---------------------------
E-------------------------------5-5-5-5-5-5-5----------------------------------------
   tratame...  con fragilez...  y veras que     solo asi estare 

e------------------------------------------------------------------------------------
B------------------------------------------------------------------------------------
G--7-7-7-7-7-----------------------7-7-7-7-7-----------------------7-7-7-7-7---------
D--7-7-7-7-7--4-5------------------7-7-7-7-7--4-5------------------7-7-7-7-7--4-5----
A--5-5-5-5-5--4-5------------------5-5-5-5-5--4-5------------------5-5-5-5-5--4-5----
E-------------2-3-----------------------------2-3-----------------------------2-3----
                 en una onda radial...           en una onda radial...           en una onda radial...


Y SI SE REPITE TODA LA CANCION, ESTA MUY FACIL ESTA ROLA...
		   
AcordesyTabs.com © 2008 Acordes y Tablaturas para guitarra. Tabs and Chords for guitar. Aviso Legal - Contacto
El uso de este sitio está sujeto a la aceptación de los términos y condiciones (43 usuarios online)