tablaturas, partituras y acordes para guitarra
Busca por banda/artista:
 
y/o título de la canción:
A B C D E F G H I J K L M N O P Q R S T U V W X Y Z 0 1 2 3 4 5 6 7 8 9 / Top 100 tabs
Categorías
Usuarios
usuario:
Darse de alta
password:
Artistas más visitados
Publicidad
TOP acordes y tablaturas de Attaque 77


Onirico
de Attaque 77
Puntúa este acorde/tab:      
(0.6/5)
Reportar este acorde/tab
  Añadir a tus favoritos
  Imprimir
[Intro] Sobre > (B A G) x2
E|-------------------------------------------------------------|
B|-------------------------------------------------------------|
G|----7------6-------7-7/9-7-------------7------6------7-7/9~--|
D|--9---9--7---7--5----------9-7------9---9--7---7--5----------|
A|-------------------------------------------------------------|
E|-------------------------------------------------------------|

 B      A       G
  En vigilia de ensueños me ví,
 B       A         G
  controlar mi conciencia de ser
 B      A       G
  desplazaba mi punto de encaje
          E         C
 hacia algún lugar
 [  Arreglo  ]  B                  A   D
 donde no hacen falta alas para volar,   sentir.

[Intro]

 B         A       G
  Desde el aire fijé mi atención
 B        A       G
  en visiones sin explicación
 B        A       G
  desbordaba energía estallaba
       E        C
 en intensidad
 [Arreglo] B                  A    D
 me precipitaba y volvía a volar.


 G            B              A
 Sobre las sierras y el mar
              E
 sobre la ciudad vi mi barrio
 G           B            A              C    D
 el cielo invita a jugar,    a no despertar,    a no despertar...


Instrumental sobre [B A G] x 2


e|-------------------------------------------------|
B|-7~~/10/7~~/10/12--------------------------------|
G|-------------------------------10-----------12---|
D|------------------------10-12-----12--10-12------|
A|------------------10-13--------------------------|
E|-------------------------------------------------|


(***)
B|----10-------8-----8~~8-7~~~--|
G|-/9------9/7---7~~------------|



(esto sobre ***)
B      A       G
 Yo perdía en el intento
B      A      G
 mi cierta identidad
B  A   G               E      C
 amanecía vacilando despegar
[Arreglo] B              A      D
 y permanecía en el mismo lugar,   despierto.

G           B
 Pasan los días sin sol
A            E
 mi vida es una mueca triste
G         B
 me preguntaste por qué,
A           C
 y no supe hablar.

G           B
 Me siento sin corazón
A           E
 me siento tan incompleto
G           B
 mi cuerpo sabe lo que
A           C  D
 natura non da
           E
no puedo volar aunque lo intente.


 [Solo]   Sobre > [ E G D A   E G A B]

    E       G                 D             A     E       G        A    B
E|--------------------------------------------------------------------------------|
B|--------------------------------------------------------------------------------|
G|--9~-9-11-12-12------------------11-12-11-9~----9-------------------------------|
D|-----------------12-10-9-10-----------------------12-10-9----9-9/7--7-9/10/9~---|
A|----------------------------12~~--------------------------10--------------------|
E|--------------------------------------------------------------------------------|



G           B
 Pasan los días sin sol
A            E
 mi vida es una mueca triste
G         B
 me preguntaste por qué,
A           C
 y no supe hablar.

<-------- > En esta parte Mariano se cansa de meter giladas, fijensé abajo puse algo
G           B
 Me siento sin corazón
A           E
 me siento tan incompleto
G           B
 mi cuerpo sabe lo que
A           C  D
 natura non da
           E
no puedo volar aunque lo intente.



[Final]

     Me siento sin corazón,       me siento tan incompleto
E|----------------------------------------------------------|
B|-----------------------------------------------------------|
G|---------------------------7h9~------------9b10b8b----|
D|------------------------7h9-------------------------------------------------|
A|-5~----------9~------7h9---------------------------------------------------|
E|-------------------------------------------------------|

  Mi cuerpo sabe lo que,        Natura non da
E|-------------------------------------------|
B|------------12-----------------------------|
G|----------/9----9-12-9-11-9----9--7-5-7~---|
D|-------------------------------------------|
A|-------------------------------------------|
E|-------------------------------------------|

El final es sobre > [B G A]x3 C G B

   No puedo volar, no puedo volar, no puedo volar
E|-------------------------------------------------------------------------------------|
B|--------------------------------------------12--12~12~12~-12b12b12b12--9h7-----------|
G|--7~-7-9-9/11-9--7-9-9/11-9--7-9-9/11-9-7~--12-----------------------------9h7-------|
D|------------------------------------------------------------------------------9h7----|
A|----------------------------------------------------------------------------------7--|
E|-------------------------------------------------------------------------------------|

-------------------------
[ Arreglo ]
D|-----------|
A|-3-5/7-5-3-|
E|-----------|

-------------------------
 que temaso por dios!!!!!!!!!! para Jirafa... yeheje!!
		   
AcordesyTabs.com © 2008 Acordes y Tablaturas para guitarra. Tabs and Chords for guitar. Aviso Legal - Contacto
El uso de este sitio está sujeto a la aceptación de los términos y condiciones (21 usuarios online)