tablaturas, partituras y acordes para guitarra
Busca por banda/artista:
 
y/o título de la canción:
A B C D E F G H I J K L M N O P Q R S T U V W X Y Z 0 1 2 3 4 5 6 7 8 9 / Top 100 tabs
Categorías
Usuarios
usuario:
Darse de alta
password:
Artistas más visitados
Publicidad
TOP acordes y tablaturas de Attaque 77


Estás en: Inicio > Letra A > Acordes y tablaturas de Attaque 77 > Un momento de meditación
Un momento de meditación
de Attaque 77
Puntúa este acorde/tab:      
(0.6/5)
Reportar este acorde/tab
  Añadir a tus favoritos
  Imprimir
Solo:

e:-----------------------------12---------
B:--14-14--12-12--------12-12-----14------
G:---------------14-14--------------------
D:----------------------------------------
A:----------------------------------------
E:----------------------------------------



e:---------------------------12-----14--12------------12----------------12------------12
B:-14-14--12-12--------12-12-----14----------14--15-15-----14-14-14--15-----14-14—-15---
G:---------------14-14------------------------------------------------------------------
D:--------------------------------------------------------------------------------------
A:--------------------------------------------------------------------------------------
E:--------------------------------------------------------------------------------------

AGUANTE A77AQUE!!!!!!
		   
AcordesyTabs.com © 2008 Acordes y Tablaturas para guitarra. Tabs and Chords for guitar. Aviso Legal - Contacto
El uso de este sitio está sujeto a la aceptación de los términos y condiciones (24 usuarios online)