tablaturas, partituras y acordes para guitarra
Busca por banda/artista:
 
y/o título de la canción:
A B C D E F G H I J K L M N O P Q R S T U V W X Y Z 0 1 2 3 4 5 6 7 8 9 / Top 100 tabs
Categorías
Usuarios
usuario:
Darse de alta
password:
Artistas más visitados
Publicidad
TOP acordes y tablaturas de Attaque 77


Estás en: Inicio > Letra A > Acordes y tablaturas de Attaque 77 > Un poco de respeto
Un poco de respeto
de Attaque 77
Puntúa este acorde/tab:      
(0.5/5)
Reportar este acorde/tab
  Añadir a tus favoritos
  Imprimir
Intro 1:  e -----9-7------10-9-7-----7----|-----9-7------10-10-9-----7----||
          B -10-------10----------10---10-|-10-------10-----------10---10-||
          G ------------------------------|-------------------------------||
          D ------------------------------|-------------------------------||
          A ------------------------------|-------------------------------||
          E ------------------------------|-------------------------------||

Intro 2: A (sobre Intro 1)

A
    Intento descubrir
                     E
Algo que me haga sentir mejor.
            C#                       
Pudiste evitar
               D
romper mi corazón.

         A                E
Me enamoré de ti, y vivo triste así.
               D                    F#
No me diste razones de porque me trataste tan mal.
E
No me diste ni una razón.
No me diste, vos no me diste...

  A*           C#
Y yo sigo escuchándote.
         D                 C#   D  E   A(Intro 1)
Oh, nena ten un poco de respeto paaara mi.
   
Intento descubrir
algo que lo haga mas dulce aún.
Pudiste evitar
romper mi corazón.
                        
Me enamore de ti y vivo triste así.
Que razón religiosa no sentir seguir amando?
No me digas que lo sabes.
No me digas, no, no me digas...

  *
Y yo sigo escuchándote.
Oh, nena ten un poco de respeto para mí.

              E
e --0-0-0---------|--0-0-0-------------||
B --------3-2-----|--------3-2---------||
G ------------4~--|------------4--2-1--||
D ----------------|--------------------||
A ----------------|--------------------||
E ----------------|--------------------||
         
Me enamoré de tí y vivo triste así.
No me diste razones de porque me trataste tan mal.
No me diste ni una razón.
No me diste, vos no me diste...

  *
Y yo sigo escuchándote               A
Oh, nena ten un poco de respeto para mí.
Sigo escuchándote.             **    A (Intro 1 x2)
Oh, nena ten un poco de respeto  para mí.

Sobre la segunda vez hace:
e --9--9-7-5/7-9------9-7-5------|-------------------------||
B ---------------------------7~--|--3-2-----------------2--||
G -------------------------------|------42/4--2----4------||
D -------------------------------|-------------------------||
A -------------------------------|-------------------------||
E -------------------------------|-------------------------||

+++++++++++++++++++++++++++++++++++++++++++++++++++++++++++++
*
e ---------------------||
B ---------------------||
G ---------------------||
D --6b7r6b7r6b7r6b7r6--||
A ---------------------||
E ---------------------||

**
e --5/75-7-9---105--||
B --------------------||
G --------------------||
D --------------------||
A --------------------||
E --------------------||

====================================================
Cualquier duda, correción o critica, mandeme un mail
		   
AcordesyTabs.com © 2008 Acordes y Tablaturas para guitarra. Tabs and Chords for guitar. Aviso Legal - Contacto
El uso de este sitio está sujeto a la aceptación de los términos y condiciones (23 usuarios online)