tablaturas, partituras y acordes para guitarra
Busca por banda/artista:
 
y/o título de la canción:
A B C D E F G H I J K L M N O P Q R S T U V W X Y Z 0 1 2 3 4 5 6 7 8 9 / Top 100 tabs
Categorías
Usuarios
usuario:
Darse de alta
password:
Artistas más visitados
Publicidad
TOP acordes y tablaturas de Jethro Tull


Dun Ringill
de Jethro Tull
Puntúa este acorde/tab:      
(0.5/5)
Reportar este acorde/tab
  Añadir a tus favoritos
  Imprimir
#----------------------------------PLEASE NOTE---------------------------------#
#This file is the author's own work and represents their interpretation of the #
#song. You may only use this file for private study, scholarship, or research. #
#------------------------------------------------------------------------------#
#

Date: Sat, 08 Nov 1997 18:08:13 -0500 (EST)
From: Aqualung54@aol.com
Subject: TAB: dun ringill by jethro tull

Many thanks to kinzel@ibr.cs.tu-bs.de (Jens Kinzel) and Nikolai Ilinsky  2--------------|---0 > 2----
|---1----------------|----3----------------|----3---3---------------|---3 > 3---
|---0----------------|----2----------------|----0 > 2--------------|---0 > 2----
|---2----------------|----0----------------|----0 --0---------------|---0 > 0---
|---3----------------|----------------------|-------------------------|---------
|---------------------|---------------------|--------------------------|--------


* listen to the song for the strumming of all the chords.



     DF         F
|---3----------------|----------------------|-------------------------|
|---0----------------|----1----------------|-------------------------|
|---0----------------|----2----------------|----2-------------------|
|---0----------------|----3----------------|----3-------------------|
|---2----------------|----3----------------|----3-------------------|
|---3----------------|----1----------------|----1-------------------|







ending-


|---------------------------0--0--0----|-------------2--2--0--------------------
|---------------------------1--1--0----|--------3---3--3--3--------3--3--3--3---
|------2-------2-------2--2--2--2----|-----2------2--2--2-----2-----2--2--2---|
|----2-------2------0-----0--0--0----|-------------0--0--0-----------0--0--0----
|--0------------------------0--0--0----|--0--------------------3-------3--3--3--
|----------3------2---------------------|---------------------------------------


           
|--------------------------------------------|----------------------------------
|------------3--3--3-----------3--3--3--|----------3--3--3-----------3--3--3---|
|--------0--0--0--0-------0---0--0--0--|------0--0--0--0-------0--0--0--0---|   
|-----0-----0--0--0-----0-----0--0--0--|----0----0--0--0-----0----0--0--0---|
|--2--------2--2--2--1--------1--1--1--|-1-------1--1--1--1-------1--1--1---|
|--------------------------------------------|----------------------------------


             rake
|----------0-(0)-------------1--0-------------
|--------------3------------3------------------
|------0---------2--------2------------------
|----0----------(0)-----0-------------------
|--1-------------------0--------------------
|-------------------------------------



(1st verse)
Clear light on a slick palm
     as I mis-deal the day
Slip the night from a shaved pack
     make a marked card play
Call twilight hours down
      from a heaven home
      high above the highest bidder
      for the good Lord’s throne



(chorus)
In the wee hours I’ll meet you
      down by Dun Ringill---
     *watch the old gods play
      by Dun Ringill



(2nd verse)
We’ll wait in stone circles
      ‘til the force comes through---
      lines join in faint discord
      and the Stormwatch brews
      a concert of kings
      as the white sea snaps
      at the heels of a soft prayer
      whispered



(chorus)
In the wee hours I’ll meet you
      down by Dun Ringill---
     *take you quickly
      by Dun Ringill



*start playing verses




please send corrections or comments to:
aqualung54@aol.com  (jeff boudreau)


ANYONE WHO HAS ANY TULL SHEET MUSIC, PLEASE SEND IT OVER, FOR ANY INSTRUMENT!!!!


JETHRO TULL IS THE GREATEST BAND, EVER!!!!!
		   
AcordesyTabs.com © 2008 Acordes y Tablaturas para guitarra. Tabs and Chords for guitar. Aviso Legal - Contacto
El uso de este sitio está sujeto a la aceptación de los términos y condiciones (37 usuarios online)