tablaturas, partituras y acordes para guitarra
Busca por banda/artista:
 
y/o título de la canción:
A B C D E F G H I J K L M N O P Q R S T U V W X Y Z 0 1 2 3 4 5 6 7 8 9 / Top 100 tabs
Categorías
Usuarios
usuario:
Darse de alta
password:
Artistas más visitados
Publicidad
TOP acordes y tablaturas de Dos Minutos


Otra Mujer
de Dos Minutos
Puntúa este acorde/tab:      
(0.3/5)
Reportar este acorde/tab
  Añadir a tus favoritos
  Imprimir
    INTRO Y VERSO :
E-----------------------------------------
B-----------------------------------------
G-----------------------------------------
D---10----------------5-------------------
A----8---7---8---5----3-------------------
E -------5---6---3------------------------
    
 
  PUENTE :    
E-----------------------------------------
B-----------------------------------------
G-----------------------------------------
D -------6--------------------------------
A---4----4--9---6-------------------------
E---2-------7---4-------------------------


          ORDEN:   Intro 1x
                   Verso  3x
                   Puente 4x
                   Verso  3x
                   Puente 4x
                   Verso  4x
                  
como siempre les recomiendo que escuchen  la cancion 
para conocer el ritmo y los cambios de posicion

cualquier duda, consulta, peticion o sugerencia  a mi 
correo pipeleyton@hotmail.com.
		   
AcordesyTabs.com © 2008 Acordes y Tablaturas para guitarra. Tabs and Chords for guitar. Aviso Legal - Contacto
El uso de este sitio está sujeto a la aceptación de los términos y condiciones (27 usuarios online)