tablaturas, partituras y acordes para guitarra
Busca por banda/artista:
 
y/o título de la canción:
A B C D E F G H I J K L M N O P Q R S T U V W X Y Z 0 1 2 3 4 5 6 7 8 9 / Top 100 tabs
Categorías
Usuarios
usuario:
Darse de alta
password:
Artistas más visitados
Publicidad
TOP acordes y tablaturas de Los de Adentro


una Canción
de Los de Adentro
Puntúa este acorde/tab:      
(0.4/5)
Reportar este acorde/tab
  Añadir a tus favoritos
  Imprimir
Hey viejos, esta es la primera cancion que mendo a la pagina. Espero que 
les guste...

Este es el intro de la cancion
E--------0-------------0--------------------3/5/3p0------------------------
B--1--3----1--1--3p1------1-----------3-----3/5/3p0-0--1--------------0--1p
G----------------------------0-----0-----0----------0--2--2--------2-------
D---------------------------------------------------0--2--------0----------
A--0--2--3---------------------------------------------------2-------------
E-------------------------------3------------------------------------------

E--------------1-----------------3--0--3--------3-----------------0--------
B-----------------1--3--1-----------------3--------3-----------1-----1-----
G-----3-----3--------------0-----------------0--------0-----2-----------2--
D--------2--------------------2--------------------------------------------
A-----------------------3--------------------------------0-----------------
E--1-----------------------------------3-----------------------------------

E-----------------1-----------------------3-----------------------0--------
B--1-----------1-----1-----1-----------3-----3-----3-----------1-----1-----
G-----2-----2-----------2-----2-----0-----------0-----0-----0-----------0--
D--------------------------------------------------------------------------
A--------------------------------------------------------3-----------------
E--------1-----------------------3-----------------------------------------

E-----------------3-----------------------1-----------------------3-5p3----
B--1-----------3-----3-----3-----------1-----1-----1-----------3---------3-
G-----0-----0-----------0-----0-----2-----------2-----2-----4--------------
D--------------------------------------------------------------------------
A--------------------------------------------------------------------------
E--------3-----------------------1-----------------------3-----------------

E--------------------------------------------------------------------------
B-----3--------------------------------------------------------------------
G--4-----------------------------------------------------------------------
D--------------------------------------------------------------------------
A--------------------------------------------------------------------------
E--------------------------------------------------------------------------

C             G               Am
Hay unas que llegan al alma
                 F
que te hacen mover las palmas...

(los acordes anteriores arpegiados)
		   
AcordesyTabs.com © 2008 Acordes y Tablaturas para guitarra. Tabs and Chords for guitar. Aviso Legal - Contacto
El uso de este sitio está sujeto a la aceptación de los términos y condiciones (51 usuarios online)