tablaturas, partituras y acordes para guitarra
Busca por banda/artista:
 
y/o título de la canción:
A B C D E F G H I J K L M N O P Q R S T U V W X Y Z 0 1 2 3 4 5 6 7 8 9 / Top 100 tabs
Categorías
Usuarios
usuario:
Darse de alta
password:
Artistas más visitados
Publicidad
TOP acordes y tablaturas de Bulldog
:: 3D - Bulldog


Otra vez
de Bulldog
Puntúa este acorde/tab:      
(0.3/5)
Reportar este acorde/tab
  Añadir a tus favoritos
  Imprimir
Intro:
       D5
e|---------------------------------------------------------------------|
B|---------------------------------------------------------------------|
G|--7--7--7-7--9-9--11-11-----------7---7--7-7--9-9-11-11--------------|
D|--7--7----------------------------7---7------------------------------|
A|--5--5----------------------------5---5------------------------------|
E|---------------------------------------------------------------------|

     B5
e|---------------------------------------------------------------------|
B|---------------------------------------------------------------------|
G|----------7-7--9-9--11-11---------7-7--9-9--11-11--------------------|
D|--9--9-------------------------(9)-----------------------------------|
A|--9--9-------------------------(9)-----------------------------------|
E|--7--7-------------------------(7)-----------------------------------|

    Hace algo Asi
e|--------------------------------------------------------------------|
B|--------------------------------------------------------------------|
G|--9--11-9-11-12-14-12-11-9------------------------------------------|
D|--------------------------------------------------------------------|
A|--------------------------------------------------------------------|
E|--------------------------------------------------------------------|


D5 (p.m)
La historia
   B5(p.m)           B5 C#5 D5
De dos corazones negros
D5 (p.m)
Que locos
	        B5
Se Encontraron en vuelo

 E5*                A5
Y que juntos asi vivieron
          D5	    G5
Siempre al borde del final
                     A5
Para nunca mas regresar

(Igual Que Arriba)
Condenados 
Por el mismo momento
Haciendo
De cada dia un seño

Por que es parte de esta vida
Seguir siendo siempre esi
Aunque ellos no tengan por venir
Y es siempre lo mismo

D5
Otra Vez
Peleando por la vida
B5
Otra vez
Ya no tenes salida
G5
Otra vez
Pasate por el mismo error
A5
Otra vez
Y es siempre lo mismo


D5
Otra Vez
Luchando por la vida
B5
Otra vez
Ya no tenes salida
G5
Otra vez
Pasate por el mismo error
A5
Otra vez
Y es siempre lo mismo

#'Solo de Guitarra'#

Ahora 
Sobre la ultima recta
Parece
Ella no esta despierta

Y es que esta vez su corazon
Volo muiy lejos hoy
Pero nuca mas regreso

Este-- y piensa muy lento
Y solo por una cuestion de tiempo
Y camino lento hacia el valcon
Y alli se despiedio
Para reencontrarce con su amor

Y hacer alla lo mismo
Otra Vez
Peleando por la vida
Otra vez
Ya no tenes salida
Otra vez
Pasate por el mismo error
Otra vez
Y es siempre lo mismo


AGUANTE BULLDOG CARAJO!!!!!!!!!
Y AGUANTE MI BANDA SKYZOFRENIKOS
		   
AcordesyTabs.com © 2008 Acordes y Tablaturas para guitarra. Tabs and Chords for guitar. Aviso Legal - Contacto
El uso de este sitio está sujeto a la aceptación de los términos y condiciones (61 usuarios online)