tablaturas, partituras y acordes para guitarra
Busca por banda/artista:
 
y/o título de la canción:
A B C D E F G H I J K L M N O P Q R S T U V W X Y Z 0 1 2 3 4 5 6 7 8 9 / Top 100 tabs
Categorías
Usuarios
usuario:
Darse de alta
password:
Artistas más visitados
Publicidad
TOP acordes y tablaturas de Pastorius jaco


Estás en: Inicio > Letra P > Acordes y tablaturas de Pastorius jaco > Continuum live
Continuum live
de Pastorius jaco
Puntúa este acorde/tab:      
(0.5/5)
Reportar este acorde/tab
  Añadir a tus favoritos
  Imprimir

Bass Tablature for Continuum(Live)---The Birthday Concert---Jaco Pastorius

h = hammer on
p = pull off
/ = slide up
 = slide down
X = dead note
  
   harm...................................................................
G---7-----------------------5----5---------4----------------------2.5------
D---5--7-----------4------5--------5.75------5----4------2.5----------4----
A------5--7----------5------------------7------5----5--------4----------5--
E---------5------------5------7-----------------------5--------5-----------
   ..................|
G---1.75--------1.75--------20-----16----13------------------------------
D---------1.75---------------------------------14--13----------16-13-13--
A----4-----------4------------------------------------14-16--------------
E----------4----------0--------0------0-----0---------------0------------

G--------------------------------------------------------9-11/13/1813--------
D---------12/14---------------11-12---------------9-9/11----------------------
A---16-14-------12-12---12-14-------10-10---10-12----------------------0-0-0--
E-----------------------------------------------------------------------------

G------<4>---4---4-6----------8----4---4-6/8---------<4>----4---4-6--9/11-9-96--
D------<4>-----4------------6--------4------------6--<4>------4------------------
A--------------------------------------------------------------------------------
E--0-0-----0---------0-0--0-----0------------0--0-0------0-----------------------

G-------------------------<4>---4---4-6-----<5>-----------4---4-6/8----------
D-------------------------<4>-----4----------<4>------------4----------6-----
A--0-0--0-0--0-0--4-6-7-----------------------<4>----------------------------
E-----------------------0-----0---------0-0-------11-0-0-------------0-----0-

G--4---4-6--9/11-9-13--------13-12-----8-9-11--13-14-16----16--------9-11----
D----4-----------------------------------------------------16h18p16-------11-
A---------------------13--13-------12-------------------------------------0--
E-------------------------------------------------------0--------------------

G------13----------------12-----------------------------------<9>----
D---------11-10h11p10-11-----6-7-9--7-6-----------------------<9>----
A---------------------------------------9--7/9-------10--------------
E--11-------------------------------------------10-7-----11-8-----0--

G--4h6-----16----16-18-----4---4-6/8-----4---4--18/20------4---4-6--9/11-9-96--
D-------------16-------------4-------------4-----------------4------------------
A-------------------------------------------------------------------------------
E------0-0-------------0-0-----------0-0--------------0-0-----------------------

G----------------<4>----4---4-6----<5>------4---4-8--------4---4-6--9/11-9-13----
D--6---4---6/9---<4>------4---------<4>-------4---------6----4-------------------
A------------------------------------<4>-------------------------------------13--
E--------------0-----0----------0--------0-----------0--0------------------------

G--1716---8-9-11---13-14-16--------------9-11--------------------------------
D--1716-----------------------X-16/1816------11-----1110-----6-7-9--7-6----
A--------------------------------------------------------------------------9--
E--------0--------0-------------------------------11--------10----------------
                                 harm..........
G---------------------<9>-------------4---------
D---------------------<9>-----------4---4-------   "GOOD EVENING! GOOD EVENING!" 
A--7/9-------10-------------------4-------4-----
E-------10-7-----11-8-----------------------4---


Figured Out and Written by Jason Matthews------> skater29@hotmail.com


		   
AcordesyTabs.com © 2008 Acordes y Tablaturas para guitarra. Tabs and Chords for guitar. Aviso Legal - Contacto
El uso de este sitio está sujeto a la aceptación de los términos y condiciones (28 usuarios online)