tablaturas, partituras y acordes para guitarra
Busca por banda/artista:
 
y/o título de la canción:
A B C D E F G H I J K L M N O P Q R S T U V W X Y Z 0 1 2 3 4 5 6 7 8 9 / Top 100 tabs
Categorías
Usuarios
usuario:
Darse de alta
password:
Artistas más visitados
Publicidad
TOP acordes y tablaturas de José José


Una mañana
de José José
Puntúa este acorde/tab:      
(0.4/5)
Reportar este acorde/tab
  Añadir a tus favoritos
  Imprimir
Una mañana me desperte y me dieron ganas de sacar la rola esta
que me gusta mucho, asi que aqui esta:

1.----------------------------------------------
2.----------------------------------------------
3.-0-5---5------------0-5---5-------------------
4.-----4---3-0-1-2--------4---3-0-1-2-2-2-2-----
5.----------------------------------------------
6.----------------------------------------------

El bajeo de arriba se toca durante toda la cancion.


      C#m
Una mañana,
              A
una mañana linda,
Em            F
como una flor,
        Am
tu corazon
Em             Am
al sol le mostrara.

      C#m
Una mañana,
             A
una mañana linda,
Em        F
mi corazon,
          Am
como una flor
Em             B7
a ti se entregara.

D      Em
Linda sera,
Em7             F#m         Bm
cuando me digas creo en tu amor
                  D7      A7
me digas que no sientes temor
                  B7    G   Em
y cuando salga el sol, sera
        Cm
Una mañana,
              A
una mañana linda,
Em         F
como la flor,
Am        D7
como el amor  
                Gm
que siempre te dare.


Solo:

1.-----5-7-9-----5-5/7-5--------7-9-----7-9-7---
2.-5/7-------5/7---------7--7-7-----7-7---------
3.----------------------------------------------
4.----------------------------------------------
5.----------------------------------------------
6.----------------------------------------------

   Mi corazon............a ti se entregara

1.-7/9-7-5------5/7--------------------------------------
2.----------0-3-----0------------------------------------
3.----------------------0-5---5---0-1/2-0-5---5---0-1/2--
4.--------------------------4---3-----------4---3--------
5.-------------------------------------------------------
6.-------------------------------------------------------

Linda sera
cuando me digas creo en tu amor
me digas que no sientes temor
y cuando salga el sol sera
una mañana, una mañana linda,
como una flor, como el amor
que siempre te dare,
que siempre te dare,
que siempre te dare.


Ahi la rola, ya la habia sacado usando un capo pero esta
es la version normal, aunque sale mejor con una afinacion
1/2 step down.
Dudas o comentarios, a mi mail.

Suerte.
		   
AcordesyTabs.com © 2008 Acordes y Tablaturas para guitarra. Tabs and Chords for guitar. Aviso Legal - Contacto
El uso de este sitio está sujeto a la aceptación de los términos y condiciones (32 usuarios online)