tablaturas, partituras y acordes para guitarra
Busca por banda/artista:
 
y/o título de la canción:
A B C D E F G H I J K L M N O P Q R S T U V W X Y Z 0 1 2 3 4 5 6 7 8 9 / Top 100 tabs
Categorías
Usuarios
usuario:
Darse de alta
password:
Artistas más visitados
Publicidad
TOP acordes y tablaturas de G spot


Estás en: Inicio > Letra G > Acordes y tablaturas de G spot > Life on the road
Life on the road
de G spot
Puntúa este acorde/tab:      
(0.3/5)
Reportar este acorde/tab
  Añadir a tus favoritos
  Imprimir

LIFE ON THE ROAD

Words by Bob Feeser/ Music by Kyle Barnhill

INTRO:
e[-2---------2----------3-------------2---2-2-2---3---3-3--------------------2-2---]
b[----3--------3----------3----------3---3-3-3----3---3-3-----3--3-1-0-----1-3----]                                           g[-------2--------2----------2-------2---2-2-2----2---2-2-----2--0-0-0-----2-2----]
d[-0--------------------0------------0---0-0-0----0---0-0-----0--0-0-0-----2-0----]
a[---------------------------------------------------------------------------------------]
E[--------------------------------------------------------------------------------------]                                             
                                             Dm         D          D
Life on the road 
                                                D         A         A
Split us apart
                                               Am       C         C
                                                  I headed west 
                                               D        A6          A6
Away from you
                                 A7-5           Dm          Am           E
I am trying to make it through.

CHORUS:
                                            N.C
Life on the road 
Ain’t what it ought to be 
Life on the road 
I need you with me.

                                         E              E                 E
I look at your picture 
                                             Am      Am         Am
it ain’t enough
                                            Dm         Dm         Dm
I need your touch
				       A         A          A
I need you here
			 E                                    Am            E
Oh, I’m not gonna make it through.
CHORUS X 2
 SOLO
OUTRO:
Life on the road 
Ain’t what it ought to be.




CHORUS:
 e]------------------------------------------------------------------------------                                                           B]-----------------------------------------------------------------------------                                                                       G]-9--999--------------------------------9--999----------------------------                                                                 D]-7--777---9--99---11-11---7---------7--777---11-11---99--7---------                                                        A]------------7--77----9--9---5----------------------9-9----77--5---------                                                      E]-----------------------------------------------------------------------------


SOLO:
 
e]-12--------------------------------9-10-12--------------9---                                                     B]-------12--12^14--10-10---14--------------12(1/4)-------
G]----------------------------------------------------------------
D]----------------------------------------------------------------
A]----------------------------------------------------------------
E]----------------------------------------------------------------                                         

 e]-----7^9^7-------5^7^5-------3^5^3---0------2---2--0----                                                     B]---------------------------------------------------2-----2--1----
G]9--------------7-------------5------------------3------3--0----
D]------------------------------------------------------------------
A]------------------------------------------------------------------
E]------------------------------------------------------------------







END OF OUTRO:
Use after strumming the E chord
in the last segment


                                                         play at the third pick-up
 e]---------------------0-----0---------------0-------
B]---------------0-------0-----0--------------0-------
G]----------1------1-------------1------------1------
D]----2-------2---------------------2---------2------
A]-------2-----------------------------2------2------
E]-0------------------------------------------0----




TRANSCRIBED BY KYLE BARNHILL




		   
AcordesyTabs.com © 2008 Acordes y Tablaturas para guitarra. Tabs and Chords for guitar. Aviso Legal - Contacto
El uso de este sitio está sujeto a la aceptación de los términos y condiciones (100 usuarios online)