tablaturas, partituras y acordes para guitarra
Busca por banda/artista:
 
y/o título de la canción:
A B C D E F G H I J K L M N O P Q R S T U V W X Y Z 0 1 2 3 4 5 6 7 8 9 / Top 100 tabs
Categorías
Usuarios
usuario:
Darse de alta
password:
Artistas más visitados
Publicidad
TOP acordes y tablaturas de Gob


Estás en: Inicio > Letra G > Acordes y tablaturas de Gob > Mr sandman
Mr sandman
de Gob
Puntúa este acorde/tab:      
(0.3/5)
Reportar este acorde/tab
  Añadir a tus favoritos
  Imprimir

------------------------------------------------------------------------------- 
MR. SANDMAN - Gob 
------------------------------------------------------------------------------- 

By: George Zalepa (monstour5@yahoo.com) 

I was originally gonna do a version of the song with my band, then i heard the gob 
version and i notice that it wasn't tabbed, so here it is... 

ZZZZZzzzzZZZZzzzzz... 

introA (with a bit of chorus and delay): 
e|------0-4-2-0---------2-5-4--------0-4-2-0---------2-5-4--| 
B|----2---------2-----3------------2---------2-----3--------| 
G|--2-------------2-4------------2-------------2-4----------| 
D|----------------------------2-----------------------------| 
A|--0---------------2------------0---------------2----------| <-- not played but good to add 
E|----------------------------------------------------------| if you wanna show off 

verseA: 
"Mr. Sandman, bring me a dream..." 
e|---------------------------------------------------------------------------------------| 
B|---------------------------------------------------------------------------------------| 
G|------------------------------------6-6-6-6-6-6-6-6-------------------4-4-4-4-4-4-4-4--| 
D|--7-7-7-7-7-7-7-7--6-6-6-6-6-6-6-6--6-6-6-6-6-6-6-6--4-4-4-4-4-4-4-4--4-4-4-4-4-4-4-4--| 
A|--7-7-7-7-7-7-7-7--6-6-6-6-6-6-6-6--4-4-4-4-4-4-4-4--4-4-4-4-4-4-4-4--2-2-2-2-2-2-2-2--| 
E|--5-5-5-5-5-5-5-5--4-4-4-4-4-4-4-4-------------------2-2-2-2-2-2-2-2-------------------| 
p.m................................................................................ 
verseA (cont'd): 
e|------------------------------------------------| 
B|------------------------------------------------| 
G|------------------------------------------------| 
D|--2-2-2-2-2-2-2-2--7-7-7-7-7-7-7-7---3-3---2-2--| <-- these F and E chords may be played 
A|--2-2-2-2-2-2-2-2--7-7-7-7-7-7-7-7---3-3---2-2--| and octave higher 8th and 7th fret 
E|--0-0-0-0-0-0-0-0--5-5-5-5-5-5-5-5---1-1---0-0--| 5th's on the A 
p.m............................. 

verseB 
"Sandman, I'm so alone..." 
e|---------------------------------------------------------------------------------------| 
B|---------------------------------------------------------------------------------------| 
G|------------------------------------6-6-6-6-6-6-6-6-------------------4-4-4-4-4-4-4-4--| 
D|--7-7-7-7-7-7-7-7--6-6-6-6-6-6-6-6--6-6-6-6-6-6-6-6--4-4-4-4-4-4-4-4--4-4-4-4-4-4-4-4--| 
A|--7-7-7-7-7-7-7-7--6-6-6-6-6-6-6-6--4-4-4-4-4-4-4-4--4-4-4-4-4-4-4-4--2-2-2-2-2-2-2-2--| 
E|--5-5-5-5-5-5-5-5--4-4-4-4-4-4-4-4-------------------2-2-2-2-2-2-2-2-------------------| 
p.m................................................................................ 

e|----------------------------------------| 
B|----------------------------------------| 
G|--7-7-7-7-7-7-7-7--4-4-4-4--7-7-7-7-----| 
D|--7-7-7-7-7-7-7-7--4-4-4-4--7-7-7-7--7--| 
A|--5-5-5-5-5-5-5-5--2-2-2-2--5-5-5-5--7--| 
E|-------------------------------------5--| 

bridgeA 
e|---------------9-7-------------7-10-9-----------9-7-------------7-10-9--| 
B|----------7-10-----10-7------8-------------7-10-----10-7------8---------| 
G|------6-7---------------7--9-------------7---------------7--9-----------| 
D|--7-9---------------------------------7---------------------------------| 
A|------------------------------------------------------------------------| 
E|------------------------------------------------------------------------| 

verseC: 
"Mr. Sandman, bring me a dream..." 
e|---------------------------------------------------------------------------------------| 
B|---------------------------------------------------------------------------------------| 
G|--7-7-7-7-7-7-7-7--6-6-6-6-6-6-6-6-------------------4-4-4-4-4-4-4-4-------------------| 
D|--7-7-7-7-7-7-7-7--6-6-6-6-6-6-6-6--4-4-4-4-4-4-4-4--4-4-4-4-4-4-4-4--2-2-2-2-2-2-2-2--| 
A|--5-5-5-5-5-5-5-5--4-4-4-4-4-4-4-4--4-4-4-4-4-4-4-4--2-2-2-2-2-2-2-2--2-2-2-2-2-2-2-2--| 
E|------------------------------------2-2-2-2-2-2-2-2-------------------0-0-0-0-0-0-0-0--| 

verseC (cont'd): 
e|------------------------------------------------------| 
B|------------------------------------------------------| 
G|-------------------7-7-7-7-7-7-7-7--------------------| 
D|--7-7-7-7-7-7-7-7--7-7-7-7-7-7-7-7--8-8-8-8--7-7-7-7--| 
A|--7-7-7-7-7-7-7-7--5-5-5-5-5-5-5-5--8-8-8-8--7-7-7-7--| 
E|--5-5-5-5-5-5-5-5-------------------6-6-6-6--5-5-5-5--| 

verseD: 
e|---------------------------------------------------------------------------------------| 
B|---------------------------------------------------------------------------------------| 
G|--7-7-7-7-7-7-7-7--6-6-6-6-6-6-6-6-------------------4-4-4-4-4-4-4-4-------------------| 
D|--7-7-7-7-7-7-7-7--6-6-6-6-6-6-6-6--4-4-4-4-4-4-4-4--4-4-4-4-4-4-4-4--2-2-2-2-2-2-2-2--| 
A|--5-5-5-5-5-5-5-5--4-4-4-4-4-4-4-4--4-4-4-4-4-4-4-4--2-2-2-2-2-2-2-2--2-2-2-2-2-2-2-2--| 
E|------------------------------------2-2-2-2-2-2-2-2-------------------0-0-0-0-0-0-0-0--| 

verseD (cont'd): 
e|------------------------------------------------| 
B|------------------------------------------------| 
G|--7-7-7-7-7-7-7-7--------------------7-7-7-7-7--| 
D|--7-7-7-7-7-7-7-7--2-2-2-2--7-7-7-7--7-7-7-7-7--| 
A|--5-5-5-5-5-5-5-5--2-2-2-2--7-7-7-7--5-5-5-5-5--| 
E|-------------------0-0-0-0--5-5-5-5-------------| 

bridgeB (different so pay attention!): 

"Enter Sandman. Uh yeah..." 

e|-------------9-7-------------2-5-4------2-5-4-2-0---------2-0--| 
B|--------7-10-----10-7------3----------3-----------3-----3------| 
G|--4-6-7---------------7--4----------4---------------2-4--------| 
D|---------------------------------------------------------------| 
A|---------------------------------------------------------------| 
E|---------------------------------------------------------------| 

verseE 
e|---------------------------------------------------------------------------------------| 
B|---------------------------------------------------------------------------------------| 
G|------------------------------------6-6-6-6-6-6-6-6-------------------4-4-4-4-4-4-4-4--| 
D|--7-7-7-7-7-7-7-7--6-6-6-6-6-6-6-6--6-6-6-6-6-6-6-6--4-4-4-4-4-4-4-4--4-4-4-4-4-4-4-4--| 
A|--7-7-7-7-7-7-7-7--6-6-6-6-6-6-6-6--4-4-4-4-4-4-4-4--4-4-4-4-4-4-4-4--2-2-2-2-2-2-2-2--| 
E|--5-5-5-5-5-5-5-5--4-4-4-4-4-4-4-4-------------------2-2-2-2-2-2-2-2-------------------| 

e|---------------------------------------| 
B|---------------------------------------| 
G|---------------------------------------| 
D|--2-2-2-2-2-2-2-2--7--------------3-2--| 
A|--2-2-2-2-2-2-2-2--7--wolfman!----3-2--| 
E|--0-0-0-0-0-0-0-0--5--------------1-0--| 

verseF 

"Mr. Sandman, someone to dread..." 
e|---------------------------------------------------------------------------------------| 
B|---------------------------------------------------------------------------------------| 
G|------------------------------------6-6-6-6-6-6-6-6-------------------4-4-4-4-4-4-4-4--| 
D|--7-7-7-7-7-7-7-7--6-6-6-6-6-6-6-6--6-6-6-6-6-6-6-6--4-4-4-4-4-4-4-4--4-4-4-4-4-4-4-4--| 
A|--7-7-7-7-7-7-7-7--6-6-6-6-6-6-6-6--4-4-4-4-4-4-4-4--4-4-4-4-4-4-4-4--2-2-2-2-2-2-2-2--| 
E|--5-5-5-5-5-5-5-5--4-4-4-4-4-4-4-4-------------------2-2-2-2-2-2-2-2-------------------| 

e|-------------------| 
B|-------------------| 
G|--7-7-7-7-7-7-7-7--| 
D|--7-7-7-7-7-7-7-7--| 
A|--5-5-5-5-5-5-5-5--| 
E|-------------------| 

codaA with introA: 
"Mr. Sandman bring us, please please bring us..." 
e|-----------------------------------------------------------------------------------------| 
B|-----------------------------------------------------------------------------------------| 
G|--4-4-4-4--7-7-7-7--4-4-4-4--7-7-7-7--4-4-4-4-4-4-4-4--7-7-7-7-7-7-7-7-------------------| 
D|--4-4-4-4--7-7-7-7--4-4-4-4--7-7-7-7--4-4-4-4-4-4-4-4--7-7-7-7-7-7-7-7--7-7-7-7-7-7-7-7--| 
A|--2-2-2-2--5-5-5-5--2-2-2-2--5-5-5-5--2-2-2-2-2-2-2-2--5-5-5-5-5-5-5-5--7-7-7-7-7-7-7-7--| 
E|------------------------------------------------------------------------5-5-5-5-5-5-5-5--| 

My fingers are numb... 

Questions, Comments email me at monstour5@yahoo.com 

http://www.portlandoutfitters.com/punkrock/ 

-------------------------------------------------------------------------------

		   
AcordesyTabs.com © 2008 Acordes y Tablaturas para guitarra. Tabs and Chords for guitar. Aviso Legal - Contacto
El uso de este sitio está sujeto a la aceptación de los términos y condiciones (21 usuarios online)