tablaturas, partituras y acordes para guitarra
Busca por banda/artista:
 
y/o título de la canción:
A B C D E F G H I J K L M N O P Q R S T U V W X Y Z 0 1 2 3 4 5 6 7 8 9 / Top 100 tabs
Categorías
Usuarios
usuario:
Darse de alta
password:
Artistas más visitados
Publicidad
TOP acordes y tablaturas de Los Visitantes


Paloma
de Los Visitantes
Puntúa este acorde/tab:      
(0.3/5)
Reportar este acorde/tab
  Añadir a tus favoritos
  Imprimir
INTRO:
          D         Bm                D            Bm          D
e-|-------------------|----|-------------------------|-------------------
B-|-------------------|----|-------------------------|-------------------
G-|-------------------|----|-/4-4-2---2---/4-4-2-----|-------------------
D-|-----0-4-------0---|-x2-|--------4------------4-0-|-------0-4-------0-
A-|-0h2-------0h2---2-|----|-------------------------|-0-0h2-------0h2---
E-|-------------------|----|-------------------------|-------------------
                                                                           
 Bm                         A
-------------------------------|-
-------------------------------|-
----------------------------2--|-
----------------------------2--|-
-0h2p0h2p0h2p0h2p0h2p0h2p0--0--|-
-------------------------------|-
                                                



riff de esta estrofa                                         
e-|-----------------------|-
B-|-7----9-7----3---3-2---|-
G-|-7----9-7----4---4-2---|-
D-|-7----9-7----4---4-2---|-
A-|-5----7-5----2---2-0---|-
E-|-----------------------|-
D                Bm
Bien por caminar solo por la calle
D                  Bm
sin importarme nada
D                     Bm
repeticion saludable, tantas cosas queres decir
D                          Bm
lo que te mantiene estable

riff estribillo
e-|--------------------|-
B-|--------------------|-
G-|-7-----7-6-4----4-6-|-
D-|-7-----7-6-4----4-6-|-
A-|-5-----5-4-2----2-4-|-
E-|--------------------|-

paloma dice:
D
quiero besarte el alma 
Bm
y trepar muy alto en tu risa
D
subir al ceibo y quemarme
Bm
quemarme con tus caricias

D (C#m) Bm (A) G  (F#) E A E A

e-|-2---------------2--------------|-
B-|-3---------------3--------------|-
G-|-2---------------2--------------|-
D-|-0----------2-4--0----------4-2-|-
A-|--------3-5-------------3-5-----|-
E-|----3-5-------------3-5---------|-
                                       

Cosas que te hacen bailar
marcando el paso en la calle
cosas que te hacen pensar
puedo ver en el fondo de tus ojos
algo sin querer, que no es ningun deseo
que es como un ceibo, como las manos de un niño
los peces quedaron en el rio del amor, del amor

        D         Bm                  A
e-|---------------------------------------|-
B-|-----------------------------------2---|-
G-|-----------------------------------2---|-
D-|-----4-------0---------------------2---|-
A-|-0h2-----0h2---2p0h2p0h2p0h2p0h2p0-0---|-
E-|---------------------------------------|-

D
quiero besar las burbujas de tu alma
Bm         D              Bm                    A
riendonos, soñandonos, al tiempo de la marcha

E
quiero besarte el alma 
C#m
y trepar muy alto en tu risa
E
subir al ceibo y quemarme
C#m
quemarme con tus caricias 


AGUANTE LOS VISITANTES!!!!!!!!!
		   
AcordesyTabs.com © 2008 Acordes y Tablaturas para guitarra. Tabs and Chords for guitar. Aviso Legal - Contacto
El uso de este sitio está sujeto a la aceptación de los términos y condiciones (26 usuarios online)