tablaturas, partituras y acordes para guitarra
Busca por banda/artista:
 
y/o título de la canción:
A B C D E F G H I J K L M N O P Q R S T U V W X Y Z 0 1 2 3 4 5 6 7 8 9 / Top 100 tabs
Categorías
Usuarios
usuario:
Darse de alta
password:
Artistas más visitados
Publicidad
TOP acordes y tablaturas de Beatles


Estás en: Inicio > Letra B > Acordes y tablaturas de Beatles > And Your Bird Can Sing Correct
And Your Bird Can Sing Correct
de Beatles
Puntúa este acorde/tab:      
(0.7/5)
Reportar este acorde/tab
  Añadir a tus favoritos
  Imprimir

And Your Bird Can Sing 
by The Beatles (Revolver) 1966

Guitar Parts

Tabbed By Ben Walker (laservampire@yahoo.com.au)

Every single tab I have ever seen for this song it completely
and utterly WRONG. There is no way even George would be able
to get his fingers around some of the tabs I have seen for
this song. Get out your copy of Revolver any listen carefully,
THERE ARE TWO SEPARATE GUITAR PARTS PLAYING THE MELODY IN
HARMONY WITH EACH OTHER. No-one seems to realize this!. It is 
easy to tell because Guitar 1 (The lower part) is less distorted
than Guitar 2 (The higher part).


Intro (0:00)

Guitar 1

E -|------------------------------------------------------------------------|
B -|------------------------------------------------------------------------|
G -|---9-8-6-8-6---6-----------------9-9--9b11r9----------9---6-------------|
D -|-------------9---9-7-6-------6-9-------------9-6-7-9--------9-6---------|
A -|-----------------------9-7-9-------------------------------------7------|
E -|-0----------------------------------------------------------------------|


Guitar 2

E -|--------------------------------------------------------------------------|
B -|---97---7---------------------7-9-9--9b11r9------------------------------|
G -|-------9---9-8-9-8-6-------------------------9------9-11b13--13r11p9----9-|
D -|---------------------9-7-6-7-9-----------------9-11------------------11-9-|
A -|--------------------------------------------------------------------------|
E -|-0------------------------------------------------------------------------|



Fill (0:21)

Guitar 1

E -|--------------------|
B -|--------------------|
G -|-------9--6---------|
D -|-6-7-9------9-6-----|
A -|-----------------7--|
E -|--------------------|


Guitar 2

E -|-----------------------------|
B -|-----------------------------|
G -|------9-11b13--13r11p9----9--|
D -|-9-11------------------11-9--|
A -|-----------------------------|
E -|-----------------------------|



Bridge (0:37), (1:06)

Guitar 1

E -|------------------------------------------------------|
B -|-------4----------------4----------------4------------|
G -|-4-3-4----4-3-1---4-3-4----4-3-1---4-3-4----4-3-1-----|
D -|------------------------------------------------------|
A -|------------------------------------------------------|
E -|------------------------------------------------------|


E -|-------------------------------------------------------------------|
B -|-----4-2-----------------0---------------2---------------2---------|
G -|-4-3------1------------1----1----------2----2----------2----2------|
D -|------------3--------2--------2------4--------4------4--------4----|
A -|--------------4----2------------2--4------------4--4------------4--|
E -|-------------------------------------------------------------------|


E -|----------------------|
B -|-------4--------------|
G -|-----4----4-----------|
D -|---4--------4---------|
A -|-2------------2-------|
E -|----------------------|


Guitar 2


E -|-------4---------------3---------------2-----------------|
B -|-4-2-4----4-2----4-2-4----4-2----4-2-4----4-2------------|
G -|--------------4---------------4---------------4----------|
D -|---------------------------------------------------------|
A -|---------------------------------------------------------|
E -|---------------------------------------------------------|


E -|-----2-1---------------0---------------2---------------2---------|
B -|-4-2------2----------0----0----------2----2----------2----2------|
G -|------------1------1--------1------2--------2------2--------2----|
D -|--------------3--2------------2--4------------4--4------------4--|
A -|-----------------------------------------------------------------|
E -|-----------------------------------------------------------------|


E -|----------------------|
B -|-----4-7--4-----------|
G -|---4--------4---------|
D -|-4------------4-------|
A -|----------------------|
E -|----------------------|



Solo (0:52), (1:35)

Guitar 1

E -|--------------------------------------------------------------------------|
B -|--------------------------------------------------------------------------|
G -|---9-8-6-8-6---6-----------------9-9--9b11r9---------9---6----------------|
D -|-------------9---9-7-6-------6-9-------------9-6-7-9-------9-6------------|
A -|-----------------------9-7-9----------------------------------------------|
E -|-0------------------------------------------------------------------------|


E -|-----------------------------------------------------------|
B -|-------------------------------7-9-9-----------------------|
G -|-----6-8-6---------------6-8-9----------------9------------|
D -|-7-9-------9-7-6---6-7-9------------------------9----------|
A -|-----------------9--------------------------------11-------|
E -|-----------------------------------------------------------|


Guitar 2

E -|--------------------------------------------------------------------------|
B -|---97---7---------------------7-9-9--9b11r9------------------------------|
G -|-------9---9-8-9-8-6-------------------------9------9-11b13--13r11p9------|
D -|---------------------9-7-6-7-9-----------------9-11------------------11---|
A -|--------------------------------------------------------------------------|
E -|-0------------------------------------------------------------------------|


E -|--------7---------------------7-9-11-12-12---12b14r12---------|
B -|-7-9-10---10-9-7-------7-9-10-------------------------12-9----|
G -|-----------------9-8-9-------------------------------------9--|
D -|--------------------------------------------------------------|
A -|--------------------------------------------------------------|
E -|--------------------------------------------------------------|



Outro (1:49)


Guitar 1

E -|-----------------|
B -|-----------------| 
G -|---9-8-6-8-6---6-|  |
D -|-------------9---|  |
A -|-----------------|  |
E -|-0---------------|  |
  |
  |
Guitar 2  |----x3
  |
E -|-----------------|  |
B -|---97---7-------|  |
G -|-------9---9-8-9-|  |
D -|-----------------|  |
A -|-----------------| /
E -|-0---------------|/


Guitar 1

E -|---|
B -|---|
G -|---|
D -|---|
A -|-7-|Let Ring
E -|---|


Guitar 2

E -|---|
B -|---|
G -|---|
D -|-7-|LetRing
A -|---|
E -|---|


Enjoy!

BEATLES FOREVER
		   
AcordesyTabs.com © 2008 Acordes y Tablaturas para guitarra. Tabs and Chords for guitar. Aviso Legal - Contacto
El uso de este sitio está sujeto a la aceptación de los términos y condiciones (60 usuarios online)