tablaturas, partituras y acordes para guitarra
Busca por banda/artista:
 
y/o título de la canción:
A B C D E F G H I J K L M N O P Q R S T U V W X Y Z 0 1 2 3 4 5 6 7 8 9 / Top 100 tabs
Categorías
Usuarios
usuario:
Darse de alta
password:
Artistas más visitados
Publicidad
TOP acordes y tablaturas de Green day


Estás en: Inicio > Letra G > Acordes y tablaturas de Green day > When i come around
When i come around
de Green day
Puntúa este acorde/tab:      
(0.3/5)
Reportar este acorde/tab
  Añadir a tus favoritos
  Imprimir

Song: When I come around
Artist: Green Day
Bassist: Mike Dirnt


Intro 
G:-------3h4h3---------------------------------------
D:---4-4---------------------------------------------
A:---------------------------------------------------
E:---------------------------------------------------

Verse 1
G:-------3h4h3---------------------------------------
D:---4-4--------4-------3h4h3-------5h4h5------------
A:------------------4-4-------4---6-------2----------
E:---------------------------------------------------

Chorus
G:---------------------------------------------------
D:-------------------3h4h3-----------------------3h4-
A:-------------22222-------4-----------22222---------
E:----44444444----------------44444444---------------




		   
AcordesyTabs.com © 2008 Acordes y Tablaturas para guitarra. Tabs and Chords for guitar. Aviso Legal - Contacto
El uso de este sitio está sujeto a la aceptación de los términos y condiciones (25 usuarios online)