tablaturas, partituras y acordes para guitarra
Busca por banda/artista:
 
y/o título de la canción:
A B C D E F G H I J K L M N O P Q R S T U V W X Y Z 0 1 2 3 4 5 6 7 8 9 / Top 100 tabs
Categorías
Usuarios
usuario:
Darse de alta
password:
Artistas más visitados
Publicidad
TOP acordes y tablaturas de Deftones


Plastic
de Deftones
Puntúa este acorde/tab:      
(0.3/5)
Reportar este acorde/tab
  Añadir a tus favoritos
  Imprimir

“Plastic”
Deftones
Tabbed By: Aimy Escoto




(drop D tuning)

Riff #1

E---------------------------
B------------------------1-1
G--2-2-3-2-2---2-2-2-3-2-1-1
D--0-0-1-0-0---0-0-0-1-0-1-1
A--0-0-1-0-0---0-0-0-1-0----
D---------------------------


Riff #2

E-------------------------------------
B----------------------------------1-1
G--2-3-2---------------------------1-1
D---------1-0-0-0-1-0-0--0-0-0-1-0-1-1
A---------1-0-0-0-1-0-0--0-0-0-1-0----
D---------1-0-0-0-1-0-0--0-0-0-1-0----




		   
AcordesyTabs.com © 2008 Acordes y Tablaturas para guitarra. Tabs and Chords for guitar. Aviso Legal - Contacto
El uso de este sitio está sujeto a la aceptación de los términos y condiciones (34 usuarios online)