tablaturas, partituras y acordes para guitarra
Busca por banda/artista:
 
y/o título de la canción:
A B C D E F G H I J K L M N O P Q R S T U V W X Y Z 0 1 2 3 4 5 6 7 8 9 / Top 100 tabs
Categorías
Usuarios
usuario:
Darse de alta
password:
Artistas más visitados
Publicidad
TOP acordes y tablaturas de los Panchos


Estás en: Inicio > Letra l > Acordes y tablaturas de los Panchos > un siglo de ausencia
un siglo de ausencia
de los Panchos
Puntúa este acorde/tab:      
(0.7/5)
Reportar este acorde/tab
  Añadir a tus favoritos
  Imprimir
UN SIGLO DE AUSENCIA

Los Panchos

Autor: Alfredo Gil



Intro (requinto):



1|--------------0-1-|-1-0-------------------0-|-1-0--------------

2|--------0-1-3-----|-----3-1-0---0-1-0-1-3---|-----3-1-0---0-1--

3|--0-1-2-----------|-----------2-------------|-----------2------

4|------------------|-------------------------|------------------

5|------------------|-------------------------|------------------

6|------------------|-------------------------|------------------



1|-------2---2---2---2---2---3-1-0-------------------0-1-|----

2|-0-1-3---3---3---3---3---0-------3-1-0-------0-1-3-----|----

3|---------------------------------------2-1-2-----------|----                                          

4|-------------------------------------------------------|----

5|-------------------------------------------------------|----

6|-------------------------------------------------------|----



1|--1-0-------------------0-|-1-0--------------

2|------3-1-0---0-1-0-1-3---|-----3-1-0---0-1--

3|------------2-------------|-----------2------

4|--------------------------|------------------

5|--------------------------|------------------

6|--------------------------|------------------



1|-------2---2---2---2---2---3-1-0----------|-0--

2|-0-1-3---3---3---3---3---0-------3-1-0----|-0--

3|---------------------------------------2--|-1--                                     

4|------------------------------------------|-0--

5|------------------------------------------|-2--

6|------------------------------------------|-0--



lyrics n' chords:

E7              Am    B7

  Un siglo de ausencia

                  Em

voy sufriendo por ti

                 F#7     B7

y una amarga impaciencia

              Em

me ocasiona vivir.

        Am        

Tan separado de ti

   D7                G

pensar que no he de verte otra vez,

    Em            Am

fingir que soy feliz sin tu amor

   A7           D7

llorar con mi dolor.

E7             Am    B7

  La vida inclemente

             Em

te separa de mi

                F#7    B7

y un siglo de ausencia

                  Em

voy sufriendo por ti.

Am 

En la multitud



busco los ojos 

          B7           Em

que me hicieron tan feliz

B7

y no logro hallar

         Am

en otros labios 

       B7            Em

la ilusi¢n que ya perd¡.

E7             Am    B7

  La vida inclemente

             Em

te separa de mi

                F#7    B7

y un siglo de ausencia

                  Em

voy sufriendo por ti.









		   
AcordesyTabs.com © 2008 Acordes y Tablaturas para guitarra. Tabs and Chords for guitar. Aviso Legal - Contacto
El uso de este sitio está sujeto a la aceptación de los términos y condiciones (22 usuarios online)