tablaturas, partituras y acordes para guitarra
Busca por banda/artista:
 
y/o título de la canción:
A B C D E F G H I J K L M N O P Q R S T U V W X Y Z 0 1 2 3 4 5 6 7 8 9 / Top 100 tabs
Categorías
Usuarios
usuario:
Darse de alta
password:
Artistas más visitados
Publicidad
TOP acordes y tablaturas de Marea


Estás en: Inicio > Letra M > Acordes y tablaturas de Marea > Pan duro
Pan duro
de Marea
Puntúa este acorde/tab:      
(0.3/5)
Reportar este acorde/tab
  Añadir a tus favoritos
  Imprimir
	
                   MAREA 'PAN DURO'.

Bueno, bueno, bueno, aki llega otra del último disko de este grupazo 
ke nos gusta tanto. aver ke tal keda:



INTRO:X2
e|--------------3---------------------3---12--|
B|--------------3---------------------3-------|
G|--------------4---------------------4-------|
D|--------0---------------------0-------------|
A|--0--2------------------0--2----------------|
E|-----------0---------------------0----------|



Cuando empieza a cantar es esto:

e|---------0----------------3------------0------0------------------|
B|-------0---0------------0---0--------1---1------1----------------|
G|-----0------0---------0------0----0--------0------0--------------|
D|------------------------------------------------------------0----|
A|--------------------------------3---------------------0--2-------|
E|--0----------------3-------------------------------------------0-|

     Arrugas  ke son      suekos con    retoños     tiernos

    livianas como son los fardos de cargar los sueños
    que tragan ruedas de molino y se les ven todos los huesos
    ke saben que sus años tienen mas de cuatro inviernos
    silencio por el techo por los platos llenos
    silencio bañado en sudores de los jornaleros
    el sol lo han hecho sus girones 
    ke saben lo ke vale un beso
    ke no kieren llevar los nombres de sus carceleros


         ESTRIBILLO:
        ------------
     MIm                            Re/Re*    Do/Do*
    que saben las tripas de puños  cerrados
  saben ke las riegan los amargos tragos
  saben todo y mas de tenerse en pie de la soledad
  saben porke esta siempre duro el pan


Despues viene un rasgeo con Fa Sol y Do, y se vuelve 
a repetir lo mismo ke el principio. 


e|---------0----------------3------------0------0------------------|
B|-------0---0------------0---0--------1---1------1----------------|
G|-----0------0---------0------0----0--------0------0--------------|
D|------------------------------------------------------------0----|
A|--------------------------------3---------------------0--2-------|
E|--0----------------3-------------------------------------------0-|

   monedas   de   tan    sucias  tan    desdibujadas
  odioso tintineo en manos encalladas
  ke son las patas de sus mulas
  si el latigo se llama el hambre
  las dueñas de caminos ke no son de nadie
  cerrojos al antojo de la poka hondura
  abiertos para dar paso a las herrduras
  ke djan huellas ke los guian para volver a deskitarse
  para no tener ke rasgarse mas las vestiduras

		
		ESTRIBILLO:
               -------------

   que saben las tripas de puños  cerrados
  saben ke las riegan los amargos tragos
  saben todo y mas de tenerse en pie de la soledad
  saben porke esta siempre duro el pan. Siempre duro

FINAL:

e|--------------3---------------------3---12--|
B|--------------3---------------------3-------|
G|--------------4---------------------4-------|
D|--------0---------------------0-------------|
A|--0--2------------------0--2----------------|
E|-----------0---------------------0----------|




Re* e|--3--|          Do*  e|-------------3--|
    B|--3--|               B|--1-------------|
    G|--2--|               G|-----0----------|
                           D|-------2--------|
                           A|----------3-----|
                           E|----------------|


NO ES IGUAL KE LA ORIGINAL PERO SE PARECE BASTANTE. 
ASI KE SI OS HA GUSTAO, BUENO, Y SI NO, VALE.


                    pa lo ke kerais Juanan_atk@hotmail.com
		   
AcordesyTabs.com © 2008 Acordes y Tablaturas para guitarra. Tabs and Chords for guitar. Aviso Legal - Contacto
El uso de este sitio está sujeto a la aceptación de los términos y condiciones (34 usuarios online)