tablaturas, partituras y acordes para guitarra
Busca por banda/artista:
 
y/o título de la canción:
A B C D E F G H I J K L M N O P Q R S T U V W X Y Z 0 1 2 3 4 5 6 7 8 9 / Top 100 tabs
Categorías
Usuarios
usuario:
Darse de alta
password:
Artistas más visitados
Publicidad
TOP acordes y tablaturas de 40 below summer


Falling down
de 40 below summer
Puntúa este acorde/tab:      
(0.4/5)
Reportar este acorde/tab
  Añadir a tus favoritos
  Imprimir

                                4x
C#--------------------------
G#--------------------------
E---------4--/-/-/-/-/-/-----
B---------3--/-/-/-/-/-/-----
F#--------2--/-/-/-/-/-/-----
B----------------------------

                                 3x                                
C#--------------------------
G#--------------------------
E---------7--6--7--8--7---
B---------7--6--7--8--7---
F#--------5--4--5--6--5---
B----------------------------

                                  1x
C#--------------------------
G#--------------------------
E---------7--6--7--8------
B---------7--6--7--8------
F#--------5--4--5--6------
B----------------------------

                                   4x
C#--------------------------
G#--------------------------
E---------7--6--7--8--7---
B---------7--6--7--8--7---
F#--------5--4--5--6--5---
B----------------------------

                                                         3x
C#-------------------------------------------
G#-------------------------------------------
E -----12-----------------------------------
B------10---12-----3-------10---7---12--
F#-----10---10-----3-------10---7---10--
B------10----9-----3-------10---7---10--

                                   1x
C#--------------------------
G#--------------------------
E---------------------------
B-------5------------------
F#------3---2----------
B-----------2------------

                                            4x
C#---------------------------------
G#---------------------------------
E-----------------------------------
B------5--/-/-/-/-/-/-/-/----5--4--
F#-----2--/-/-/-/-/-/-/-/----5--4--
B------2--/-/-/-/-/-/-/-/----5--4---

                                  2x
C#--------------------------
G#--------------------------
E---------4--/-/-/-/-/-/-----
B---------3--/-/-/-/-/-/-----
F#--------2--/-/-/-/-/-/-----
B----------------------------

                                 3x                                
C#--------------------------
G#--------------------------
E---------7--6--7--8--7---
B---------7--6--7--8--7---
F#--------5--4--5--6--5---
B----------------------------

                                  1x
C#--------------------------
G#--------------------------
E---------7--6--7--8------
B---------7--6--7--8------
F#--------5--4--5--6------
B----------------------------

                                   4x
C#--------------------------
G#--------------------------
E---------7--6--7--8--7---
B---------7--6--7--8--7---
F#--------5--4--5--6--5---
B----------------------------

                                                         3x
C#-------------------------------------------
G#-------------------------------------------
E -----12-----------------------------------
B------10---12-----3-------10---7---12--
F#-----10---10-----3-------10---7---10--
B------10----9-----3-------10---7---10--

                                   1x
C#--------------------------
G#--------------------------
E---------------------------
B-------5------------------
F#------3---2----------
B-----------2------------

                                            4x
C#---------------------------------
G#---------------------------------
E-----------------------------------
B------5--/-/-/-/-/-/-/-/----5--4--
F#-----2--/-/-/-/-/-/-/-/----5--4--
B------2--/-/-/-/-/-/-/-/----5--4---

                                                          8x  i think
C#---------------------------------------------------------------------
G#-----------------------------------------------------10------------
E------------0------------0------------------------9-------9---------
B---------4--------0-------------------7-------7--------------7-----
F#-----2--------------------------5-----------------------------------
B----------------4-----4------5-----5------0------------------------

                                       6x i think
C#-----------------------------------
G#-----------------------------------
E---------4-----2--------------------
B---------4-----2----5-----0--------
F#--------2-----0----5-----0--------
B--------------------5-----0--------

                                            4x
C#---------------------------------
G#---------------------------------
E-----------------------------------
B------5--/-/-/-/-/-/-/-/----5--4--
F#-----2--/-/-/-/-/-/-/-/----5--4--
B------2--/-/-/-/-/-/-/-/----5--4---







		   
AcordesyTabs.com © 2008 Acordes y Tablaturas para guitarra. Tabs and Chords for guitar. Aviso Legal - Contacto
El uso de este sitio está sujeto a la aceptación de los términos y condiciones (23 usuarios online)