tablaturas, partituras y acordes para guitarra
Busca por banda/artista:
 
y/o título de la canción:
A B C D E F G H I J K L M N O P Q R S T U V W X Y Z 0 1 2 3 4 5 6 7 8 9 / Top 100 tabs
Categorías
Usuarios
usuario:
Darse de alta
password:
Artistas más visitados
Publicidad
TOP acordes y tablaturas de Bulldog
:: 3D - Bulldog


Estás en: Inicio > Letra B > Acordes y tablaturas de Bulldog > Vamos a buscar
Vamos a buscar
de Bulldog
Puntúa este acorde/tab:      
(0.4/5)
Reportar este acorde/tab
  Añadir a tus favoritos
  Imprimir
INTRO:

1--------------------------------------------+
2--------------------------------------------+
3--------7-9-9---------7-9-9-----------------+
4--7-9-9-------7-9-9-9-----------------------+
5--------------------------------------------+
6--------------------------------------------+

1--------------------------------------------+
2--------------------------------------------+
3--11-12-11-9-7-9-9--11-12-11-9-7--9-7-9-7---+
4------------------------------------------7-+
5--------------------------------------------+
6--------------------------------------------+

1--------------------------------------------+
2--------------------------------------------+
3----------7-9-9-9-9------------7-9-9-9-9----+
4--9-9-9-9------------7-9-9-9-9--------------+
5--------------------------------------------+
6--------------------------------------------+

1--------------------------------------------+
2--------------------------------------------+
3--11-12-11-9-7-9-9--11-12-11-9-7-9~~--------+
4--------------------------------------------+
5--------------------------------------------+
6--------------------------------------------+


1 SOLO:

igual que el intro

1--------------------------------------------+
2--------------------------------------------+
3--------7-9-9---------7-9-9-----------------+
4--7-9-9-------7-9-9-9-----------------------+
5--------------------------------------------+
6--------------------------------------------+

1--------------------------------------------+
2--------------------------------------------+
3--11-12-11-9-7-9-9--11-12-11-9-7--9-7-9-7---+
4------------------------------------------7-+
5--------------------------------------------+
6--------------------------------------------+

1--------------------------------------------+
2--------------------------------------------+
3----------7-9-9-9-9------------7-9-9-9-9----+
4--9-9-9-9------------7-9-9-9-9--------------+
5--------------------------------------------+
6--------------------------------------------+

1--------------------------------------------+
2--------------------------------------------+
3--11-12-11-9-7-9-9--11-12-11-9-7-9~~--------+
4--------------------------------------------+
5--------------------------------------------+
6--------------------------------------------+


2 SOLO:


1---------------------------------------------------+
2---------------------------------------------------+
3-------------7-9-7-9-7-9-7-----------7-9-7-9-7-9-7-+
4--7-9-9-9-9----------------7-9-9-9-9---------------+
5---------------------------------------------------+
6---------------------------------------------------+

1---------------------------------------------------+
2---------------------------------------------------+
3--11--12-11-12-11-12-11-12-11-12-11-9-7------------+
4---------------------------------------------------+
5---------------------------------------------------+
6---------------------------------------------------+

1---------------------------------------------------+
2---------------------------------------------------+
3--12-11-12-11-12-11-12-11-12-11-9-7----------------+
4---------------------------------------------------+
5---------------------------------------------------+
6---------------------------------------------------+
		   
AcordesyTabs.com © 2008 Acordes y Tablaturas para guitarra. Tabs and Chords for guitar. Aviso Legal - Contacto
El uso de este sitio está sujeto a la aceptación de los términos y condiciones (30 usuarios online)