tablaturas, partituras y acordes para guitarra
Busca por banda/artista:
 
y/o título de la canción:
A B C D E F G H I J K L M N O P Q R S T U V W X Y Z 0 1 2 3 4 5 6 7 8 9 / Top 100 tabs
Categorías
Usuarios
usuario:
Darse de alta
password:
Artistas más visitados
Publicidad
TOP acordes y tablaturas de Carnaval de Cadiz


Vaporcito
de Carnaval de Cadiz
Puntúa este acorde/tab:      
(0.5/5)
Reportar este acorde/tab
  Añadir a tus favoritos
  Imprimir
Esta tablatura esta hecha para bandurria.
Creo que es la primerA q se expone en ATAME para este instrumento tan carnavalero.

La afinación de la bandurria es la siguiente: 

1ª LA 2ª MI 3ª SI 4ª FA# 5ª DO# 6ª SOL#

El * al lado de un número significa q la nota va trineada :)

6|-----------------------------------------------------------------------------
5|-----------------------------------------------------------------------------
4|-----------------------------------------------------------------------------
3|---------------3*------------------------------------------------------------
2|-0-1-0-1-0-1-0------------------0*-0--------------------------4--------------
1|------------------2-5-3-2-3-2-0------0-2-3-2-0-3-2*-2-2-2-2-0---2-0*---------

6|-----------------------------------------------------------------------------
5|-----------------------------------------------------------------------------
4|-----------------------------------------------------------------------------
3|----------------------------------------------------------3------------------
2|--------3-3-1*---------------------3-1-------------3-3-1*---0-1-3---------4--
1|-0-2*-0--------2-3-2-3-2-3-2-3-2-0-----3-3*-0-2*-0----------------5-3-2-0----

6|------------------------------------------------------------------------------
5|------------------------------------------------------------------------------
4|------------------------------------------------------------------------------
3|------------------------------------------------------------------------------
2|---------------------------------------------------------------0-0-1-3-1-0*---
1|-0-2*-2-5-3-5-3-2-0-3-7*-8-7-5-7-3-3-2*-0-0-0-2-5-3-2-3-5-3-2*----------------

6|------------------------------------------------------------------------------
5|------------------------------------------------------------------------------
4|------------------------------------------------------------------------------
3|------------------------------------------------------------------------------
2|-0-0-0-----------3-1-0*-------------------------------------------------------
1|-------2-3-2-0-2--------0-2-4-4-4-4-4-2-0-2-4*-4-4-2-0-4*-7*-5-4-2*-----------

6|------------------------------------------------------------------------------
5|------------------------------------------------------------------------------
4|------------------------------------------------------------------------------
3|------------------------------------------------------------------------------
2|-4-----------------4------------4---------------------------------------------
1|---0-2-2-2-2-2-2-0---0-2*-2-2-0---0-2*-5*-3-5-3-2-0*-0-3-4-4-4-4-4-2-0-2-4*---

6|------------------------------------------------------------------------------
5|------------------------------------------------------------------------------
4|------------------------------------------------------------------------------
3|------------------------------------------------------------------------------
2|----------------------------------------0-4-------------4-1-------------------
1|-4-4-2-0-0-2*-0-5-5*-5-5-5-5-5-5*-5*-4*-----5-5-5-3-7-4-----0-2-4-2*-4-4-2-0--


** Dedidaca a aquellas personas que me han ayudado a aprender a tocar la bandurria,
 tales como chano, pino, noelia ... **
		   
AcordesyTabs.com © 2008 Acordes y Tablaturas para guitarra. Tabs and Chords for guitar. Aviso Legal - Contacto
El uso de este sitio está sujeto a la aceptación de los términos y condiciones (19 usuarios online)