tablaturas, partituras y acordes para guitarra
Busca por banda/artista:
 
y/o título de la canción:
A B C D E F G H I J K L M N O P Q R S T U V W X Y Z 0 1 2 3 4 5 6 7 8 9 / Top 100 tabs
Categorías
Usuarios
usuario:
Darse de alta
password:
Artistas más visitados
Publicidad
TOP acordes y tablaturas de Tremolo


Vencera
de Tremolo
Puntúa este acorde/tab:      
(0.6/5)
Reportar este acorde/tab
  Añadir a tus favoritos
  Imprimir
bueno aca estoy otra ves con este tab espero q le guste

Vencerá (Tremolo)

Intro:

1-------------------------------------------------------------------------- ------
2-------------------------------------7---8---7------7-----------7bvv--------     
3-----s11bvvvv-9-7---s7-9--------------9------9---7-------------------

1---------------------------------------------------------------------------------
2-------------------------------------7---8---7------7-----------7bvv-- -------  
3-----s11bvvvv-9-7---s7-9--------------9------9---7------------------

1--------------------------------------6---7---6-----6----------6bvv----------
2-----s11bvvvv---9---7---s7---9--------------9------9---7------------------
3---------------------------------------------------------------------------------

1--------------------------------------6---7---6-----6----------6bvv----9bvvv-
2-----s11bvvvv---9---7---s7---9--------------9------9---7---------------------
3-----------------------------------------------------------------------------------

B5              A5         G5     E5
No correrá sangre y balas
E          G           D           
Será la ultima batalla 
B5           A5                G5          E5
fuerzas del bien fuerzas del mal 
E            G                D
Combatirán hasta el final
      B5                      A5
Sé q el querer ganar todo
       G5
Por siempreeeeeeeeeeeee
    B5                   A5
La justicia será la paz
G5                  Fm#5
Seraaaaaaaaaaaaaaaaaaaa

B5               B5        B5  A5  G5                                         
Vencera    vencera
                               A5                           
Esta escrito a través de los tiempos 
B5              B5         B5  A5  G5                                         
Vencera   vencera 
      A5
Y la tierra  se sacudirá
B5
Vencera  vencera 
A5                              G5
Para siempreeeeeeee uooooooo          ( se repite el intro)      

       
gracias y si quieren mas tabs mandame un mail para mandar pues cahuuu gentee
		   
AcordesyTabs.com © 2008 Acordes y Tablaturas para guitarra. Tabs and Chords for guitar. Aviso Legal - Contacto
El uso de este sitio está sujeto a la aceptación de los términos y condiciones (32 usuarios online)