tablaturas, partituras y acordes para guitarra
Busca por banda/artista:
 
y/o título de la canción:
A B C D E F G H I J K L M N O P Q R S T U V W X Y Z 0 1 2 3 4 5 6 7 8 9 / Top 100 tabs
Categorías
Usuarios
usuario:
Darse de alta
password:
Artistas más visitados
Publicidad
TOP acordes y tablaturas de Marcos Witt


Venció
de Marcos Witt
Puntúa este acorde/tab:      
(0.6/5)
Reportar este acorde/tab
  Añadir a tus favoritos
  Imprimir
ESTO ES EN LA PARTE DEL RAP EN LA VERSION DE ENCIENDE UNA LUZ

G------------------------------
D-----------4-2-----------4-2--
A--4-4-4-4-------4-4-4-4-------
E------------------------------
   SE REPITE 8 VECES
G----------------------------------------------
D---------------4---2-----------------2-4------
A--4-4-2---2-4---------4-4-2---2-4---2---------
E--------4-------------------4------4----------
 SE REPITE 4 VECES
G-------------------------1-1------------------
D----------3--3-2-4-4-2h4-----4-2--------------
A-4-4-4p2h4--4---------------------------------
E----------------------------------------------
  SE REPITE 3 VECES
G---------------------3-5-6-8------------------
D----------3--3-2-4-6--------------------------
A-4-4-4p2h4--4---------------------------------
E----------------------------------------------

Y ESTE ES EL ARREGLO DEL CORO

G-------------------
D----2--3-3-2-------
A--4----------4-2---
E-------------------

Y EN LA ESTROFA PUEDES HACER SLAP Y POPIN CON LOS SIGUIENTES ACORDES:

C#m- F#m- A- Ab
		   
AcordesyTabs.com © 2008 Acordes y Tablaturas para guitarra. Tabs and Chords for guitar. Aviso Legal - Contacto
El uso de este sitio está sujeto a la aceptación de los términos y condiciones (9 usuarios online)