tablaturas, partituras y acordes para guitarra
Busca por banda/artista:
 
y/o título de la canción:
A B C D E F G H I J K L M N O P Q R S T U V W X Y Z 0 1 2 3 4 5 6 7 8 9 / Top 100 tabs
Categorías
Usuarios
usuario:
Darse de alta
password:
Artistas más visitados
Publicidad
TOP acordes y tablaturas de Fobia


Estás en: Inicio > Letra F > Acordes y tablaturas de Fobia > Veneno Vil
Veneno Vil
de Fobia
Puntúa este acorde/tab:      
(0.4/5)
Reportar este acorde/tab
  Añadir a tus favoritos
  Imprimir
Veneno Vil
Empieza con un rasgueo en F#m ó F5

lick

-------Fm#------------------------------------

E||---5--4---------------|---5--4---------7---|
B||----------7--6--7-----|----------7--6------|
G||o---------------------|--------------------|
D||o---------------------|--------------------|
A||----------------------|--------------------|
E||----------------------|--------------------|
------F#m---------------------------------------
E||---5--4------------|---3*2*0-----------------||
B||---------7--6--7---|---------3*2*0-----------||
G||-------------------|---------------3*2*0----o||
D||-------------------|---------------------/2-o||
A||-------------------|-------------------------||
E||-------------------|-------------------------||
*es ligado
Verso F#m - A en compas de 4/4 cada uno.
y acabas al verso con un rasgueo de F#5.
coro
F#5-A  F#-A  F#5-A  F#5-A  B5  D5
SOLO
----F#5----------G#5/A5- F#5--------------C#5/D5
E||-------------------|--------------------2----||
B||-------------------|--------------------3----||
G||-------------------|--------------------2---o||
D||--4----------------|--4-----------------0---o||
A||----4--2--0--2--4--|----4--2--0--2--4--------||
E||-------------------|-------------------------||
 

----F#5-----------G#5/A5C#5/D5---------B5----
E||-------------------|-------------------------||
B||-------------------|-------------------------||
G||-------------------|---------------------4--o||
D||--4----------------|--4--0----0------0-4----o||
A||----4--2--0--2--4--|--------4---4--2---------||
E||-------------------|-------------------------||
 

------F#5---------G#5/A5- C#5/D5------------B5--
E||-------------------|-------------------------||
B||-------------------|-------------------------||
G||-------------------|------------------------o||
D||--4----------------|--4--0------------------o||
A||----4--2--0--2--4--|--------4-2-0-2--2-0-2---||
E||-------------------|-----------------------2-||
		   
AcordesyTabs.com © 2008 Acordes y Tablaturas para guitarra. Tabs and Chords for guitar. Aviso Legal - Contacto
El uso de este sitio está sujeto a la aceptación de los términos y condiciones (19 usuarios online)