tablaturas, partituras y acordes para guitarra
Busca por banda/artista:
 
y/o título de la canción:
A B C D E F G H I J K L M N O P Q R S T U V W X Y Z 0 1 2 3 4 5 6 7 8 9 / Top 100 tabs
Categorías
Usuarios
usuario:
Darse de alta
password:
Artistas más visitados
Publicidad
TOP acordes y tablaturas de Logos


Estás en: Inicio > Letra L > Acordes y tablaturas de Logos > Ven a la eternidad
Ven a la eternidad
de Logos
Puntúa este acorde/tab:      
(0.5/5)
Reportar este acorde/tab
  Añadir a tus favoritos
  Imprimir
No esta perfecta pero bue, es un temazo, tan bueno como dificil
Si alguien encuentra algunos de los tantos errores y los puede 
corregir que me escriba

Notas:
/ slide pa' cualquier lado
<x> armonico artificial (de pua)
h hammer
p pull-off
PM ... Palm muted

Intro:
  Do#                                    Sol#     La
|--------------------------------------------------------
|--------------------------------------------------------
|--------------------------------------------------------
|--/6-4--------------------------------------------------
|-------6h7p6-4---4------------4-7-6h7p6-4------<6>-<7>--
|---------------7---<7>--4h6h7-------------4-<7>---------

  Do#
-------------------------------------------------------------
-------------------------------------------------------------
-------------------------------------------------------------
--/6-4-----------------11-9-7-7-11-9-7-7-9-7-6-6-9-7----9/8--
-------6h7p6-4---4-----------------------------------4--7/6--
---------------7---<7>---------------------------------------

  Do#                                    Sol#     La
--------------------------------------------------------
--------------------------------------------------------
--------------------------------------------------------
--/6-4--------------------------------------------------
-------6h7p6-4---4------------4-7-6h7p6-4------<6>-<7>--
---------------7---<7>--4h6h7-------------4-<7>---------

  Do#
----------------------------------------------------|
----------------------------------------------------|
----------------------------------------------------|
--/6-4-----------------7h9p7h9p7h9p7-6-7h9p7-/////--|
-------6h7p6-4---4----------------------------------|
---------------7---<7>------------------------------|


|--------------------------------------------------------------------
|--------------------------------------------------------------------
|--8------------6-----9-----8--6---8----------6-----9-8-6-------<6>--
|--6------------6-----6-----6--6---6----------6-----------9-8-9------
|--------------------------------------------------------------------
|--------------------------------------------------------------------
   Se que estas harto de sentirte  solo entre tanta gente

                              Mi               Fa#
---------------------------------------------------|
---------------------------------------------------|
--8-------6-------9-----8-6---9----------------11--|
--6-------6-------6-----6-6---9----------------11--|
------------------------------7----------------9---|
---------------------------------------------------|
   Y de andar por mil caminos que confunden tu mente


Se que ya a nadie le interesa saber como te sientes
porque el mundo esta perdido en su propia oscuridad


   Mi      Do#            Fa# Si La# Si La#
|------------------------------------------
|------------------------------------------
|--9-------6-------------------------------
|--9-------6--------------4----------------
|--7-------4--------------4---2---1---2-1--
|-------------------------2----------------
    Pero podes confiar en mi

  Mi      Do#        Re#
------------------------------------------------------------------------|
------------------------------------------------------------------------|
--9-------6----------8-----------8--------------------------------------|
--9-------6----------8-8-8-8-8-8-8--------------------------------------|
--7-------4----------6-6-6-6-6-6-6--6--7-6-7-<6>--<4>--------4-4--------|
-------------------------------------------------------4-6-7-----7-6-4--|
PM                     .........
   Adonde vallas estare             esperandote


  Sol# Si         Fa#  Mi         Fa# Mi Sol#         Si
|-----------------------------------------------------------------
|-----------------------------------------------------------------
|------4----------------------------------------------------------
|--6---4----------4----2----------4---2--6------------------------
|--6---2----------4----2----------4---2--6------------2-4/6-6--4--
|--4--------------2----0----------2---0--4------------------------
   Ven a la eternidad si puedes creer   que yo soy la vida

  Sol# Si        Fa#  Mi           Fa# Mi Sol#          Si
--------------------------------------------------------------------|
--------------------------------------------------------------------|
-------4------------------------------------------------------------|
----6--4---------4----2------------4---2--6-------------------------|
----6--2---------4----2------------4---2--6-------------2-4/6-6--4--|
----4------------2----0------------2---0--4-------------------------|
Oh! no moriras jamás, porque yo vencí     en la cruz la muerte


|------------------------------------------------------------------------------------
|------------------------------------------------------------------------------------
|--9----8----6-----9--<8>--<6>---9----8----6----9--<8>--6-6---9---8---6---9-<8>-<6>--
|--6----6----6-------------------6----6----6--------------6---6---6---6--------------
|---------------------------------------------------------4--------------------------
|------------------------------------------------------------------------------------
     Conozco el hambre y la sed,  la injusticia y el dolor

-------------------------------------------------------------------
-------------------------------------------------------------------
-------------------------------------------------------------------
--------------------6-----------------------------------6----------
--6-7-6-7-6-7-6-7-6---6-7-6-7-6-7-6-7-6-7-6-7-6-7-6-7-6---6-7-<7>--
-------------------------------------------------------------------
PM.........................................................
       y se quien sos,                         como estas, 

-----------------------------------------
-----------------------------------------
-------------------------8---9---8----6--
-------------------------6---6---6----6--
--6---7---6----4---7-6-------------------
--4---4---4----4---4-4-------------------
         aqui estoy,            aqui estoy

SOLO:
muy pronto...

   La# Do#       Sol#  Fa#      Sol# Fa# La#         Do#
|-----------------------------------------------------------------
|-----------------------------------------------------------------
|------6----------------------------------------------------------
|--8---6----------6----4----------6---4--8------------------------
|--8---4----------6----4----------6---4--8------------4-6/8-8--6--
|--6--------------4----2----------4---2--6------------------------
   Ven a la eternidad si puedes creer   que yo soy la vida

    La# Do#       Sol#  Fa#      Sol# Fa# La#         Do#
-------------------------------------------------------------------|
-------------------------------------------------------------------|
--------6----------------------------------------------------------|
----8---6----------6----4----------6---4--8------------------------|
----8---4----------6----4----------6---4--8------------4-6/8-8--6--|
----6--------------4----2----------4---2--6------------------------|
Oh! no moriras jamás, porque yo vencí     en la cruz la muerte


   La# Do#       Sol#  Fa#      Sol# Fa# La#         Do#
|-----------------------------------------------------------------
|-----------------------------------------------------------------
|------6----------------------------------------------------------
|--8---6----------6----4----------6---4--8------------------------
|--8---4----------6----4----------6---4--8------------4-6/8-8--6--
|--6--------------4----2----------4---2--6------------------------
   Ven a la eternidad si puedes creer   que yo soy la vida

    La# Do#       Sol#  Fa#      Sol# Fa# La#         Do#
-------------------------------------------------------------------|
-------------------------------------------------------------------|
--------6----------------------------------------------------------|
----8---6----------6----4----------6---4--8------------------------|
----8---4----------6----4----------6---4--8------------4-6/8-8--6--|
----6--------------4----2----------4---2--6------------------------|
Oh! no moriras jamás, porque yo vencí     en la cruz la muerte


|--------------------------------------------------------------
|--------------------------------------------------------------
|-------------------------------------/10-8--------------------
|-------------------------------------------10h11p10-8----<8>--
|---------4-----------------------444------------------11------
|--6-44-6---6-44-<6>--6-4-666-222-444--------------------------

-----------------------------------------------------------------------|
-----------------------------------------------------------------------|
-------------------------------------10--------8----10------5-5h6p5----|
-------------------------------------10--------8----10--6-8---------6--|
---------4-----------------------444-8---------6----8------------------|
--6-44-6---6-44-<6>--6-4-666-222-444-----------------------------------|
PM                                                      ......
                                     Ven a la eternidad

|----------------------------------------------------------------
|----------------------------------------------------------------
|-------------------------------------/10-<8>--------------------
|---------------------------------------------10h11p10-8----<8>--
|---------4-----------------------444--------------------11------
|--6-44-6---6-44-<6>--6-4-666-222-444----------------------------

-----------------------------------------------------------------------|
-----------------------------------------------------------------------|
-------------------------------------10--------8----10------5-5h6p5----|
-------------------------------------10--------8----10--6-8---------6--|
---------4-----------------------444-8---------6----8------------------|
--6-44-6---6-44-<6>--6-4-666-222-444-----------------------------------|
PM                                                      ......
                                     Ven a la eternidad

|--------------------------------------------------------------
|--------------------------------------------------------------
|-------------------------------------/10-8--------------------
|-------------------------------------------10h11p10-8----<8>--
|---------4-----------------------444------------------11------
|--6-44-6---6-44-<6>--6-4-666-222-444--------------------------

-------------------------------------------------------------------------|
-------------------------------------------------------------------------|
-------------------------------------10--------8----10---////////--------|
-------------------------------------10--------8----10---////////-8-8-8--|
---------4-----------------------444-8---------6----8----////////-8-8-8--|
--6-44-6---6-44-<6>--6-4-666-222-444------------------------------6-6-6--|
                                     Ven a la eternidad

Sin mas por ahora, aguante el Heavy Metal Argento

                         V8
       Hermetica - Logos - Horcas - Rata Blanca
		   
AcordesyTabs.com © 2008 Acordes y Tablaturas para guitarra. Tabs and Chords for guitar. Aviso Legal - Contacto
El uso de este sitio está sujeto a la aceptación de los términos y condiciones (25 usuarios online)