tablaturas, partituras y acordes para guitarra
Busca por banda/artista:
 
y/o título de la canción:
A B C D E F G H I J K L M N O P Q R S T U V W X Y Z 0 1 2 3 4 5 6 7 8 9 / Top 100 tabs
Categorías
Usuarios
usuario:
Darse de alta
password:
Artistas más visitados
Publicidad
TOP acordes y tablaturas de Pastilla


Pastilla
de Pastilla
Puntúa este acorde/tab:      
(0.6/5)
Reportar este acorde/tab
  Añadir a tus favoritos
  Imprimir
          -fig.1-
    E             A
e|----------------------|
b|----------------2-2---|
g|---1--8—9-9-----2-1---|
d|---2--9-9-9-----2-2---|
a|---2--7-7-7-----0-0---|
e|---0------------------|


      A   Amaj7
e|----5-----5----------------|
b|----5-----5----------------|
g|----6—----6----------------|
d|----7-----6—---------------|
a|----7-----7----------------|
e|----5-----5----------------|
   -tienen que cambiar entre el A y Amaj7 regularmente-


(fig.1)
te encontré en mi camino
                 (fig.1)
tus pies estaban fríos
(fig.1)
respondí a tu llamado
                (fig.1)
mis huesos son tibios


          -fig.2-
      B      A
e|----xxx-----------------|
b|----xxx-----------------|
g|----xxx—----------------|
d|----999----7-7—7-7-7----|
a|----999----7-7-7-7-7----|
e|----777----5-5-5-5-5----|
   -el B va en mutings y el A algunas veces con un solo rasgueo-


(fig.2)
mastique con fuerza ultravioleta
(fig.2)
con colmillos afilados
(fig.2)
desgarre tu piel irreciclable
(fig.2)
y calme tu sangre


(fig.1)
cuando estoy en mi cárcel
                (fig.1)
la desolación lastima

(fig.1)
convertiste mi universo
            (fig.1)
curaste mi herida


(fig.2)
mastique con fuerza ultravioleta
(fig.2)
con colmillos afilados
(fig.2)
desgarre tu piel irreciclable
(fig.2)
y calme tu sangre


          -fig.3-
      E       A
e|---------------------|
b|---------------------|
g|----9—9-9------------|
d|----9-9-9---7-7-7----|
a|----7-7-7---7-7-7----|
e|------------5-5-5----|


(fig.3)
mi corazón necesita una pastilla
        (fig.3)
de tu piel
(fig.3)
mi corazón necesita una pastilla
        (fig.3)
de tu piel


    E             A
e|----------------------|
b|----------------2-2---|
g|---1--8—9-9-----2-1---|
d|---2--9-9-9-----2-2---|
a|---2--7-7-7-----0-0---|
e|---0------------------|


e|-----------------|
b|-----------------|
g|-----------------|
d|-----------------|
a|--2-2-2/4-2-4/7--|
e|-----------------|

e|-----------------|
b|-----------------|
g|-----------------|
d|-----------------|
a|--7/9-9-9-7------|
e|------------7-5--|

e|-------------------------------------|
b|-------------------------------------|
g|-------------------------------------|
d|-------------------------------------|
a|------4-7-4-7/9-7-4-7---4-2-0-2-4-2--|
e|--5-7--------------------------------|
   -suenan muy de fondo estos adornos pero si estan-


      B      A
e|----xxx---------------------|
b|----xxx---------------------|
g|----xxx—--------------------|
d|----999----7-6—7-6-7-6-6----|
a|----999----7-7-7-7-7-7-7----|
e|----777----5-5-5-5-5-5-5----|

      B           A
e|----xxx-x--x----xxx---------------|
b|----xxx-x--x----xxx---------------|
g|----xxx—x--8----xxx--------------|
d|----999-11-9----777----|
a|----999-9--9----777----|
e|----777-7--7----555----|


(fig.2)
mastique con fuerza ultravioleta
(fig.2)
con colmillos afilados
(fig.2)
desgarre tu piel irreciclable
(fig.2)
y calme tu sangre


(fig.3)
mi corazón necesita una pastilla
        (fig.3)
de tu piel
(fig.3)
mi corazón necesita una pastilla
        (fig.3)
de tu piel

   -acaba con fig.1 y variaciones-
		   
AcordesyTabs.com © 2008 Acordes y Tablaturas para guitarra. Tabs and Chords for guitar. Aviso Legal - Contacto
El uso de este sitio está sujeto a la aceptación de los términos y condiciones (27 usuarios online)