tablaturas, partituras y acordes para guitarra
Busca por banda/artista:
 
y/o título de la canción:
A B C D E F G H I J K L M N O P Q R S T U V W X Y Z 0 1 2 3 4 5 6 7 8 9 / Top 100 tabs
Categorías
Usuarios
usuario:
Darse de alta
password:
Artistas más visitados
Publicidad
TOP acordes y tablaturas de Bostik


Viajero
de Bostik
Puntúa este acorde/tab:      
(0.4/5)
Reportar este acorde/tab
  Añadir a tus favoritos
  Imprimir
intro
e----------- --------------- ---------------
B-10-10/8--- -10---10-10/8-- -10---10-10/8--
G--------9-- --------------9 --------------9
D----------- --------------- ---------------
A----------- --------------- ---------------
E----------- --------------- ---------------

e---------------- --------------- --------------
B-10---10-10/8--- -10---10-10/8-- -10bend---5--8
G--------------9- -------------9- --------------
D---------------- --------------- --------------
A---------------- --------------- --------------
E---------------- --------------- --------------

e---------- ---------------- ----------------
B--8---8-8- -10---10-10/8--- -10---10-10/8---
G---------- --------------9- --------------9-
D---------- ---------------- ----------------
A---------- ---------------- ----------------
E---------- ---------------- ----------------

e---------------- ---------------- ----------------
B-10---10-10/8--- -10---10-10/8--- -10---10-10/8---
G--------------9- --------------9- --------------9-
D---------------- ---------------- ----------------
A---------------- ---------------- ----------------
E---------------- ---------------- ----------------

e---------------- --------
B-10---10-10/8--- 10---10-
G--------------9- --------
D---------------- --------
A---------------- --------
E---------------- --------.


si tienen dudas mandelas a mi correo y 
¡que viva el rock and roll mexicano!
y que Bush chinge su madre.
		   
AcordesyTabs.com © 2008 Acordes y Tablaturas para guitarra. Tabs and Chords for guitar. Aviso Legal - Contacto
El uso de este sitio está sujeto a la aceptación de los términos y condiciones (21 usuarios online)