tablaturas, partituras y acordes para guitarra
Busca por banda/artista:
 
y/o título de la canción:
A B C D E F G H I J K L M N O P Q R S T U V W X Y Z 0 1 2 3 4 5 6 7 8 9 / Top 100 tabs
Categorías
Usuarios
usuario:
Darse de alta
password:
Artistas más visitados
Publicidad
TOP acordes y tablaturas de León Gieco


Estás en: Inicio > Letra L > Acordes y tablaturas de León Gieco > Viejos amores
Viejos amores
de León Gieco
Puntúa este acorde/tab:      
(0.7/5)
Reportar este acorde/tab
  Añadir a tus favoritos
  Imprimir
Riff1
G|------0------0-----------------------
D|----2------0-------------------------
A|--3------2------0--------------------
E|------------------3------------------
                                       G (un rasguido)
Riff2
E|-------------------------------------
B|--0--0--0--1--3--5--5--3--1--0--1--0-
G|-------------------------------------
D|--0--0--0--2--4--5--5--4--2--0--2--0-
                                       G (rasgueo)
Riff3
E|-------------------------------------
B|--0--1--0--1--3--5--1----------------
G|-------------------------------------
D|--0--2--0--2--4--5--2----------------
                                       C (rasgueo)
Riff4
E|-------------------------------------
B|--1--1--1--1--3--5--5--3--3--1--1--0-
G|-------------------------------------
D|--2--2--2--2--4--5--5--4--4--2--2--0-
                                       G (Rasgueo)
Riff5
E|-------------------------------------
B|-----5-----3-----1-------------------
G|-------------------------------------
D|--5-----4-----2-----0----------------
                                       D (rasgueo)
Introduccion

(Riff1)x3 Rriff2 Riff3 Riff4 Riff5 Riff1x3

Riff2
Vienen a visitarte de tanto en tanto
Riff3
Ellos solos se anuncian
D                         
en un sueño liviano,
D
juntan las manos
Riff4
Son los viejos amores que te recorren,
Riff5
laberinto de flores
Riff1
aunque no los nombres
Riff1x2

Tienen forma de aire y dos aromas
de siempre conocidos
Nadie puede cambiar
la música de sus palabras
Son los viejos amores que se aparecen
sin querer, de repente,
aunque no los nombres

Esos que te rescatan de algún abismo,
los que dan la sonrisa,
llaman esta mañana domingo por la ventana
Son los viejos amores que están adentro,
siempre latiendo,
aunque no los nombres

 En caso de resultar muy complicada se debera 
probar con la siguiente progresión de acordes:
G C G C D C D G C D C D C G D G

Esta tablatura la bajé de www.gieco.com Hay de todo...
		   
AcordesyTabs.com © 2008 Acordes y Tablaturas para guitarra. Tabs and Chords for guitar. Aviso Legal - Contacto
El uso de este sitio está sujeto a la aceptación de los términos y condiciones (20 usuarios online)