tablaturas, partituras y acordes para guitarra
Busca por banda/artista:
 
y/o título de la canción:
A B C D E F G H I J K L M N O P Q R S T U V W X Y Z 0 1 2 3 4 5 6 7 8 9 / Top 100 tabs
Categorías
Usuarios
usuario:
Darse de alta
password:
Artistas más visitados
Publicidad
TOP acordes y tablaturas de Silvio Rodriguez


Estás en: Inicio > Letra S > Acordes y tablaturas de Silvio Rodriguez > Pequeña Serenata Diurna
Pequeña Serenata Diurna
de Silvio Rodriguez
Puntúa este acorde/tab:      
(0.3/5)
Reportar este acorde/tab
  Añadir a tus favoritos
  Imprimir
Introducción
    Mim               x67570              x56460      x23130     
e:------------------------------------------------------------------------|
B:----0---0---0---0---------7---7---7----6-------6----3-----3-------------|
G:----0---0---0---0---5---5-----5---5------4---4---4------1---------------|
D:------2-------2-------7---------7----------6----------3------2-0--------|
A:------------------6---------6----------5------------2------------3-2--0-|
E:--0-------0-------------------------------------------------------------|

e:-----------A12----------------------------------------------------------|
B:-------------A12-----------12---11---9---------10---------7-------------|
G:---------------A12----------------------------------------------------9-|
D:------------------------------------------------------------------------|
A:------------------------------------------------------------------------|
E:------------------------------------------------------------------------|


Lam            Si7(x21202)        xx2000           Do
e:------------------------------------------0-------0---------------------|
B:1---------1---1---0--0---0---0---0------0-------3--------1---1--1---1---|
G:2---------2---0---2--2---2---2---2----0-------0----------0---0--0---2---|
D:------------------------------------2-------0---------------------------|
A:--------0---0---2----------2-------------------------3-----2------0-----|
E:--0-0-3----------------2-------2--------------------------------------3-|

e:---------------10-8-10-8-7h8h7------12-10-8---------------------5-7---10|
B:-------8-10-12-----------------10-12--------12-8--5-7-8-h5-5-7-8--------|
G:8-9-11------------------------------------------------------------------|
D:------------------------------------------------------------------------|
A:------------------------------------------------------------------------|
E:------------------------------------------------------------------------|


        Si7     Mim                     Lam7    Si7
e:-------------------------------------------------------|
B:1---1---0--0---------------------0-------0-------0---0-|
G:2---2---2--2----------0--------0---------2-------2---2-|
D:----------------0-h-2-------2--------------------------|
A:------2------------------2------------0-------2--------|
E:--2-----------0----------------------------------------|

e:-8-10h8------10-8-10h8---------------------------------|
B:--------12-10---------12-10-7-7-7-8-5-8-7-5-7-5-4------|
G:-------------------------------------------------4-2-0-|
D:-------------------------------------------------------|
A:-------------------------------------------------------|
E:-------------------------------------------------------|

 
MIm
A)Vivo en un país libre
        x67570
cual solamente puede ser libre
     x56460
en esta tierra
     x23130(IV-2·0 V-3·2)
en este instante
 LAm7
y soy feliz
porque soy gigante
 SI7        (SI7/FA#)
amo a una mujer clara
              MIm
que amo y me ama
 (MIm/RE)   DO(DO/SI)
sin pedir nada
     LAm(LAm/SOL)
o casi nada
          (LAm/FA#)
que no es lo mismo
 SI7      MIm·LAm7·SI7
pero es igual.

A)Y si esto fuera poco
tengo mis cantos
que poco a poco
muelo y rehago
habitando el tiempo
como la cuadra
a un hombre despierto
soy feliz
soy un hombre feliz
y quiero que me perdonen
en este día
                SId(REd) (IV-2·0 V-3·2)
los muertos de mi felicidad.

   LAm7
B)Soy feliz 

soy un hombre feliz
  MIm            MIm9
y quiero que me perdonen
         LAm7
en este dia
       SI7   MIm   LAm7  SI7·MIm
los muertos de mi felicidad
		   
AcordesyTabs.com © 2008 Acordes y Tablaturas para guitarra. Tabs and Chords for guitar. Aviso Legal - Contacto
El uso de este sitio está sujeto a la aceptación de los términos y condiciones (41 usuarios online)