tablaturas, partituras y acordes para guitarra
Busca por banda/artista:
 
y/o título de la canción:
A B C D E F G H I J K L M N O P Q R S T U V W X Y Z 0 1 2 3 4 5 6 7 8 9 / Top 100 tabs
Categorías
Usuarios
usuario:
Darse de alta
password:
Artistas más visitados
Publicidad
TOP acordes y tablaturas de Silvio Rodriguez


Estás en: Inicio > Letra S > Acordes y tablaturas de Silvio Rodriguez > Pequeña Serenata Diurna
Pequeña Serenata Diurna
de Silvio Rodriguez
Puntúa este acorde/tab:      
(0.3/5)
Reportar este acorde/tab
  Añadir a tus favoritos
  Imprimir
Como me entere que me daran tres puntos por esta tablatura pues me los quiero 
ganar y aqui esta:

INTRO Y LA PRIMERA MITAD DE LA CANCION:

  Mim             Dis1             Dis2   Dis3           Lam7               Si7      Si7/Fa#
|---------------|---------------|--------|----|--------|------------------|------2-|---2--2-|
|---0--0---0--0-|------7---7--7-|-6----6-|--3-|--------|--1---------1---0-|-0----0-|---0--0-|
|---0--0---0--0-|---6-----------|---5----|----|--------|--2---------2---2-|---2----|--------|
|---2--2---2--2-|----7------77--|----6---|-3--|-2-0----|--0-0---(0)-0-0-0-|----1---|-----1--|
|----2-------2--|-6------6------|-5------|----|----3-2-|-0--------0-------|-2------|--------|
|-0------0------|---------------|--------|----|--------|-----00-3------0--|--------|-2------|

  Mim     Mim/Re  Do     Do/Si  Lam   Lam/Sol Lam/Fa#  Si7    Mim        Lam7   Si7
|------0-|----0-|----0-|----0-|------|-------|-------|-------|------0---|-----|-----|
|-----0--|---0--|---1--|---1--|----1-|---1---|---1---|---0---|----0--0--|-1---|-0---|
|----0---|--0---|--0---|--2---|--2---|---2---|---2---|---2---|---0----0-|---0-|---2-|
|-1s2----|-0----|------|------|------|---2-2-|---2-2-|---1-1-|--2--0----|-----|-----|
|--------|------|-3----|-2----|-0----|-------|-------|-2-----|----------|-0---|-2---|
|--------|------|------|------|------|-3-----|-2-----|-------|-0--------|-----|-----|

LA SEGUNDA MITAD:

  Mim             Dis1             Dis2   Dis3           Lam7               Si7      Si7/Fa#
|---------------|---------------|--------|----|--------|------------------|------2-|---2--2-|
|---0--0---0--0-|------7---7--7-|-6----6-|--3-|--------|--1---------1---0-|-0----0-|---0--0-|
|---0--0---0--0-|---6-----------|---5----|----|--------|--2---------2---2-|---2----|--------|
|---2--2---2--2-|----7------77--|----6---|-3--|-2-0----|--0-0---(0)-0-0-0-|----1---|-----1--|
|----2-------2--|-6------6------|-5------|----|----3-2-|-0--------0-------|-2------|--------|
|-0------0------|---------------|--------|----|--------|-----00-3------0--|--------|-2------|

  Mim     Mim/Re  Do     Do/Si  Lam   Lam/Sol Lam/Fa#  Si7     Dis2    Dis3           Lam7
|------0-|----0-|----0-|----0-|------|-------|-------|-------|--------|----|--------|---------
|-----0--|---0--|---1--|---1--|----1-|---1---|---1---|---0---|------6-|--3-|--------|---1---1-
|----0---|--0---|--0---|--2---|--2---|---2---|---2---|---2---|---5----|----|--------|---2---2-
|-1s2----|-0----|------|------|------|---2-2-|---2-2-|---1-1-|----6---|-3--|-2-0----|---0---0-
|--------|------|-3----|-2----|-0----|-------|-------|-2-----|-5------|----|----3-2-|-0-------
|--------|------|------|------|------|-3-----|-2-----|-------|--------|----|--------|-----0---

           Mim          Mim9.....Lam7....Si7.....Mim.....Lam7....Si7....rasgeo- Mim
---------|---------------3-|--
---1---1-|---0---0---0---0-|--
---2---2-|---0---0---0---0-|--
---0---0-|---2---2---2-----|--
-0-------|-----2-------2---|--
-----0---|-0-------0-------|--

Con que saquen lo que les pude poner ya tienen la nocion del final les pongo los acordes para
que ustedes saquen el final es lo mismo y facil. No se mucho de musica los acordes que les puse
Dis solo se que son disminuidos, y son estos:

 Dis1 067670
 Dis2 056560
 Dis3 003434


Vivo en un pais libre
cual solamente puede ser libre
en esta tierra
en este instante
y soy feliz
porque soy gigante
amo a una mujer clara
que amo y me ama
sin pedir nada
o casi nada
que no es lo mismo
pero es igual.

***SEGUNDA PARTE***

Y si esto fuera poco
tengo mis cantos
que poco a poco
muelo y rehago
habitando el tiempo
como la cuadra
a un hombre despierto
soy feliz
soy un hombre feliz
y quiero que me perdonen
en este dia
los muertos de mi felicidad.

Soy feliz 
soy un hombre feliz
y quiero que me perdonen
en este dia
los muertos de mi felicidad.


Dudas mi correo esta arriba si quieren bajar el audio de como se oye esta en:
http://mx.geocities.com/oro_x
De ahi al escuchar tomen lo que les sirve.

Ja ya gane tres puntos!!!
		   
AcordesyTabs.com © 2008 Acordes y Tablaturas para guitarra. Tabs and Chords for guitar. Aviso Legal - Contacto
El uso de este sitio está sujeto a la aceptación de los términos y condiciones (17 usuarios online)