tablaturas, partituras y acordes para guitarra
Busca por banda/artista:
 
y/o título de la canción:
A B C D E F G H I J K L M N O P Q R S T U V W X Y Z 0 1 2 3 4 5 6 7 8 9 / Top 100 tabs
Categorías
Usuarios
usuario:
Darse de alta
password:
Artistas más visitados
Publicidad
TOP acordes y tablaturas de Jaguares


Viento
de Jaguares
Puntúa este acorde/tab:      
(0.4/5)
Reportar este acorde/tab
  Añadir a tus favoritos
  Imprimir
Esta cancion se toca a dos guitarras la de Saul toca los acordes
y la del Vampiro hace los punteos

INTRO:  
    C                         Am 
e|-------0------------0------------0--------------0------|
B|-----1---1--------1---1--------1---1----------1---1----|
G|-----------0------------0------------0------0-------0--|
D|-------------------------------------------------------|
A|--3------------3------------0------------0-------------|
E|-------------------------------------------------------|

    C                          Am
    Prestame tu peine         y peiname el alma
e|-------0------------0------------0--------------0------|
B|-----1---1--------1---1--------1---1----------1---1----|
G|-----------0------------0------------0------0-------0--|
D|-------------------------------------------------------|
A|--3------------3------------0------------0-------------|
E|-------------------------------------------------------|
   C                         Am            F
   desenrredame              fuera de este mundo
e|-------0------------0------------0--------------0------|
B|-----1---1--------1---1--------1---1----------1---1----|
G|-----------0------------0------------0------2-------0--|
D|-------------------------------------------------------|
A|--3------------3------------0------------3-------------|
E|-------------------------------------------------------|
 
   C                          Am
   dime que no estoy          soñandote
e|-------0------------0------------0--------------0------|
B|-----1---1--------1---1--------1---1----------1---1----|
G|-----------0------------0------------0------0-------0--|
D|-------------------------------------------------------|
A|--3------------3------------0------------0-------------|
E|-------------------------------------------------------|

    C                        Am            F
    enseñame                 de que estamos hechos
e|-------0------------0------------0--------------0------|
B|-----1---1--------1---1--------1---1----------1---1----|
G|-----------0------------0------------0------2-------0--|
D|-------------------------------------------------------|
A|--3------------3------------0------------3-------------|
E|-------------------------------------------------------|

   Em                          F
   Que quiero brincar planetas hasta ver una vacio
e|-------0-----------0------------1------------1-----|
B|-----0---0-------0---0--------1---1--------1---1---|
G|-----------0-----------0------------2----2------2--|
D|---------------------------------------------------|
A|---------------------------------------------------|
E|--0-----------0-------------1----------1-----------|

   Em                        F            G
   que quiero hirme a vivir  pero que sea contigo
e|-------0-----------0------------1-------------3-----|
B|-----0---0-------0---0--------1---1---------0---0---|
G|-----------0-----------0------------2-----0------0--|
D|----------------------------------------------------|
A|----------------------------------------------------|
E|--0-----------0-------------1-----------3-----------|



    C                         Am
    Viento                    amarranos
e|-------0------------0------------0--------------0------|
B|-----1---1--------1---1--------1---1----------1---1----|
G|-----------0------------0------------0------0-------0--|
D|-------------------------------------------------------|
A|--3------------3------------0------------0-------------|
E|-------------------------------------------------------|
    C                         Am            F     
    tiempo                    detente muchos años 
e|-------0------------0------------0--------1-------------|
B|-----1---1--------1---1--------1---1------1-------------|
G|-----------0------------0------------0----2-------------|
D|------------------------------------------3-------------|
A|--3------------3------------0-------------3-------------|
E|------------------------------------------1-------------|

Apartir de aqui se empieza el razgeo, si gustan pueden seguir 
haciendole los punteos

C  Am  C  Am 

   C                 Am
Prestame tu peine y peiname el alma
   C       Am         F
pufiricame no me avandones
   C                   Am
prestame tus sueño y duermeme
   C         Am        F
embrujame volvamonos eternos

  Em                         F
Que quiero brincar planetas hasta ver una vacio
  Em                       F             G
que quiero hirme a vivir pero que sea contigo


CORO

  C     Am       F G
Viento amarranos
  C      Am            F   G 
tiempo detente muchos años 

  C     Am       F G
Viento amarranos
  C      Am            F   
tiempo detente muchos años

Esta es una buena rola espero que les guste laverdad esta 
facil y se oye chido a dos guitarras, eso es todo y arriba jaguares
		   
AcordesyTabs.com © 2008 Acordes y Tablaturas para guitarra. Tabs and Chords for guitar. Aviso Legal - Contacto
El uso de este sitio está sujeto a la aceptación de los términos y condiciones (36 usuarios online)