tablaturas, partituras y acordes para guitarra
Busca por banda/artista:
 
y/o título de la canción:
A B C D E F G H I J K L M N O P Q R S T U V W X Y Z 0 1 2 3 4 5 6 7 8 9 / Top 100 tabs
Categorías
Usuarios
usuario:
Darse de alta
password:
Artistas más visitados
Publicidad
TOP acordes y tablaturas de los Panchos


Perdida
de los Panchos
Puntúa este acorde/tab:      
(0.8/5)
Reportar este acorde/tab
  Añadir a tus favoritos
  Imprimir
esta bien facil
es mejor con un requinto o con una guitarra y un capo en el quinto
traste ahi como les acomode.
<<<si alguien tiene acordes de 'los tres ases' e-mail me por favor>>>

__
       
_  e||--------5---10---9----12--10--10--9---9---7--7--------------
_) B||-----7-----------10---14--12--12--10--10--8--8--8--8--5--5--
   G||--7---------11----------------------------------9--9--6--6--
_  D||------------------------------------------------------------
_) A||------------------------------------------------------------
   E||------------------------------------------------------------
__/


__
       
_  e||-----------9---7--10--9---9---5--5--8--7---8----7--
_) B||--------5--10--8--12--10--10--7--7--9--8---8----7--
   G||-----6-------------------------------------9----8--
_  D||--7----------------------------------------8----9--
_) A||---------------------------------------------------
   E||---------------------------------------------------
__/


__
       
_  e||-----------7--5--8--7--7--------------------------
_) B||--------7-----------------8--8--5--5--------------
   G||-----8--------------------------------7--7--6--6--
_  D||--9-----------------------------------------------
_) A||--------------------------------------------------
   E||--------------------------------------------------
__/     


__
       
_  e||--7--9--5--------------5--9--7--
_) B||-----------8--------7-----------
   G||--------------9--7--------------
_  D||--------------------------------
_) A||--------------------------------
   E||--------------------------------
__/


__
       
_  e||--------------7--10--9--
_) B||-----------8------------
   G||--7--8--9---------------
_  D||------------------------
_) A||------------------------
   E||------------------------
__/


__
       
_  e||--------------------------5--9--12--10--
_) B||----------------------------------------
   G||--9--11--9--8--9--10--11----------------
_  D||----------------------------------------
_) A||----------------------------------------
   E||----------------------------------------
__/


__
       
_  e||-----7--5-----------7--10--14--12--
_) B||--7--------8--7--8-----------------
   G||-----------------------------------
_  D||-----------------------------------
_) A||-----------------------------------
   E||-----------------------------------
__/
		   
AcordesyTabs.com © 2008 Acordes y Tablaturas para guitarra. Tabs and Chords for guitar. Aviso Legal - Contacto
El uso de este sitio está sujeto a la aceptación de los términos y condiciones (26 usuarios online)