tablaturas, partituras y acordes para guitarra
Busca por banda/artista:
 
y/o título de la canción:
A B C D E F G H I J K L M N O P Q R S T U V W X Y Z 0 1 2 3 4 5 6 7 8 9 / Top 100 tabs
Categorías
Usuarios
usuario:
Darse de alta
password:
Artistas más visitados
Publicidad
TOP acordes y tablaturas de Kiss
:: Beth - Kiss


Estás en: Inicio > Letra K > Acordes y tablaturas de Kiss > Heavens On Fire
Heavens On Fire
de Kiss
Puntúa este acorde/tab:      
(0.2/5)
Reportar este acorde/tab
  Añadir a tus favoritos
  Imprimir
Kiss "Heaven's On Fire" from "Asylum"

Hi! I am not for absolute sure that this right, but I think it sounds really goo
I don't know the solo, so if you have any ideas, let me know.  
I believe the intro and the verse are played the same.  
Listen to the song to figure out exact timings and stuff.  Have fun!


(verse)
      "I look at you..."        "You make my temperture rise..."
---------------------------------------------------------------------
---------------------------------------------------------------------
---------------------------------------------------------------------
------5--5------5--5-------7---------7---------------5-------------
------5--5------5--5-------7---------7---------------5-------------
------3--3------3--3-------5---------5---------------3-------------

(pre-chorus)
"I'm gettin' closer baby, hear me breathe"
--------------------------------------------------------------------------------
--------------------------------------------------------------------------------
--5--5--5--5--5--5--5--5--5--5--5--------------------------------------------
--5--5--5--5--5--5--5--5--5--5--5----------5--5--8--5-----5--5--8--5-------
--3--3--3--3--3--3--3--3--3--3--3----------5--5--8--5-----5--5--8--5-------
-----------------------------------------------3--3--6--3-----3--3--6--3-------


"You know the way to give me...."                 "Just let me love you and you'
--------------------------------------------------------------------------------
--------------------------------------------------------------------------------
-5--5--5--5--5--5--5--5--5--5---------------8--8--8--8--8--8----10---10---10----
-5--5--5--5--5--5--5--5--5--5---------------8--8--8--8--8--8----10---10---10----
-3--3--3--3--3--3--3--3--3--3---------------6--6--6--6--6--6-----8----8----8----
--------------------------------------------------------------------------------

(chorus)
"Feel my heat, taking you higher.  Burn with me.   Heaven's on fire.
 Paint the sky,    with   de-sire.      Angel     fly      Heaven's on fire."
----------------------------------------------------------------------
----------------------------------------------------------------------
----------------------------5------5---3---5-----5-----5---3---------
--5--8--5------5---5--8---5------5---3---5-----5-----5---3--5------
--5--8--5------5---5--8---3------3---1---3-----3-----3---1--5------
--3--6--3------3---3--6---------------------------------------3-----

Go back and repeat verse for verse 2.  End with chorus until fade.


Questions or comments?  E-mail me at ChristisKliq@yahoo.com


-Christi 


		   
AcordesyTabs.com © 2008 Acordes y Tablaturas para guitarra. Tabs and Chords for guitar. Aviso Legal - Contacto
El uso de este sitio está sujeto a la aceptación de los términos y condiciones (23 usuarios online)