tablaturas, partituras y acordes para guitarra
Busca por banda/artista:
 
y/o título de la canción:
A B C D E F G H I J K L M N O P Q R S T U V W X Y Z 0 1 2 3 4 5 6 7 8 9 / Top 100 tabs
Categorías
Usuarios
usuario:
Darse de alta
password:
Artistas más visitados
Publicidad
TOP acordes y tablaturas de Hamlet


Estás en: Inicio > Letra H > Acordes y tablaturas de Hamlet > Perdoname
Perdoname
de Hamlet
Puntúa este acorde/tab:      
(0.7/5)
Reportar este acorde/tab
  Añadir a tus favoritos
  Imprimir
GRUPO-HAMLET
DISCO-EL INFERNO
TITULO-PERDONAME

(CANCION SACADA X MIGUEL PIÑON,TRANSCRITA + O - BIEN POR ROI VAZQUEZ,ROPIX)

ANTE TODO KEDATE CON LAS NOTAS;EL RITMO SACALO SEGUN LA CANCION (SOBRE TODO EN EL PUNTEO),

P.D.-Las  significan hacer un ¿slide?,vamos arrastras la nota (o acorde) hasta la siguiente
del tabulado, los * son vibratos (creo)

	-3----3-34--4-4 8-- 8- 8- 8--8
	-3----3-34--4-4 8-- 8- 8- 8--8
	-5----5-56--6-610--10-10-10--10	(2 VECES)
	-5----5-56--6-610--10-10-10--10	
	-3----3-34--4-4 8-- 8- 8- 8--8
	-3----3-34--4-4 8-- 8- 8- 8--8

	-3-------------------------------------------------------------------
	-3-------------------------------------------------------------------
	-5-------------------------------------------------------------------
	-5------------------5*--6*-----------------------5*--6*--------------
	-3----------------------------------3*----------------------------3*-
	-3-------------------------------------------------------------------
          s    ¿donde estas?    ¿lejos d aki?¿en ke lugar?    ¿como es alli?

	-------------------------------------------------------------------------
	-------------------------------------------------------------------------
	-------------------------------------------------------------------------
	-----------------5*--6*----------------------5*--6*----------------------
	--------------------------------3*---------------------------------------
	-------------------------------------------------------------------------
             ¿puedes  ver?    ¿puedes oir?quiero saber      ke estas en pazzz--->


	-3----3-34--4-4 8-- 8- 8- 8--8
	-3----3-34--4-4 8-- 8- 8- 8--8
	-5----5-56--6-610--10-10-10--10	(3 VECES)
	-5----5-56--6-610--10-10-10--10	
	-3----3-34--4-4 8-- 8- 8- 8--8
	-3----3-34--4-4 8-- 8- 8- 8--8

	--------3------------------------------------------------------------
	--------3------------------------------------------------------------
	--------5------------------------------------------------------------
	--------5------------------------------------------------------------
	--------3-----------------5-6----5-6---------------------------------
	--------3---------------3------34----3s-----------------------------
            atardecer,oigo tu voz,        te escucho hablar, y creo que
	----------------------------------------------------------------------------------------
	----------------------------------------------------------------------------------------
	----------------------------------------------------------------------------------------
	----------------------------------------------------------------------------------------
	--------5-6------5-6--------------------5-6-------5-6--------------5-6-----5-6----------
	------3-------34-----3s--------------3-------34------3----------3-----34------3--------
               me    llamaras....   voy a entrar     una vez mas   pero tu   tu ya no estas---->

 


	-3----3-34--4-4 8-- 8- 8- 8--8
	-3----3-34--4-4 8-- 8- 8- 8--8
	-5----5-56--6-610--10-10-10--10	(4 VECES)
	-5----5-56--6-610--10-10-10--10	
	-3----3-34--4-4 8-- 8- 8- 8--8
	-3----3-34--4-4 8-- 8- 8- 8--8



	------------------------------------------------------------------------------------
	------------------------------------------------------------------------------------
	------------------------------------------------------------------------------------
	---------1------------1-------------1------------1-------------1------------1-------
	---3-3-1---1-1-1-1-3-1-1-1----3-3-1---1-1-1-1-3-1-1-1----3-3-1---1-1-1-1-3-1-1-1----
	------------------------------------------------------------------------------------


	------------------------------------------------------------------------------------
	------------------------------------------------------------------------------------
	------------------------------------------------------------------------------------
	---------1------------1-------------1------------1-------------1------------1-------
	---3-3-1---1-1-1-1-3-1-1-1----3-3-1---1-1-1-1-3-1-1-1----3-3-1---1-1-1-1-3-1-1-1----
	------------------------------------------------------------------------------------
          hay esperando un silencio    no lo keremos pensar     quizas porke ya conocemos

	----------------------------------------------------3-3-31-1-14--4-4----6-6-6------
	----------------------------------------------------3-3-31-1-14--4-4----6-6-6------
	----------------------------------------------------5-5-53-3-36--6-6----8-8-8------
	---------1------------1-----------------------------5-5-53-3-36--6-6----8-8-8------
	---3-3-1---1-1-1-1-3-1-1-1--------------------------3-3-31-1-14--4-4----6-6-6------
	----------------------------------------------------3-3-31-1-14--4-4----6-6-6------
	que un dia nos ha d callar   para siempre jamaassssssssssss  te siento entre nosotros

	------3-3-31-1-14--4-4----6-6-6----			
	------3-3-31-1-14--4-4----6-6-6----		
	------5-5-53-3-36--6-6----8-8-8----
	------5-5-53-3-36--6-6----8-8-8----  (2 veces desde el final del punteo)
	------3-3-31-1-14--4-4----6-6-6----
	------3-3-31-1-14--4-4----6-6-6----
     (aki viene un grito) para siempre jamas....


	-3-------------------------------------------------------------------
	-3-------------------------------------------------------------------
	-5-------------------------------------------------------------------
	-5------------------5*--6*-----------------------5*--6*-------------- (2 veces el punteo)
	-3----------------------------------3*----------------------------3*-
	-3-------------------------------------------------------------------


	-3--310--10--11--11
	-3--310--10--11--11
	-5--512--12--13--13
	-5--512--12--13--13
	-3--310--10--11--11
	-3--310--10--11--11
	(esta es la parte del perdoname......)
		   
AcordesyTabs.com © 2008 Acordes y Tablaturas para guitarra. Tabs and Chords for guitar. Aviso Legal - Contacto
El uso de este sitio está sujeto a la aceptación de los términos y condiciones (41 usuarios online)