tablaturas, partituras y acordes para guitarra
Busca por banda/artista:
 
y/o título de la canción:
A B C D E F G H I J K L M N O P Q R S T U V W X Y Z 0 1 2 3 4 5 6 7 8 9 / Top 100 tabs
Categorías
Usuarios
usuario:
Darse de alta
password:
Artistas más visitados
Publicidad
TOP acordes y tablaturas de Puerto Seguro


Perdóname
de Puerto Seguro
Puntúa este acorde/tab:      
(0.5/5)
Reportar este acorde/tab
  Añadir a tus favoritos
  Imprimir
EA  D GBE
02  2 200   E?
XX 11 999   C#m
XX 10 999   C#m/C
XX  9 999   C#m/B
XX  8 999   C#m/Bb

INTRO:
C#m  B  A  G#m  F#m  A  B

        E                            B
Fueron muchos mis tropiezos en esta vida,
       F#m       C#m               B 
por querer andar lejos de tu voluntad,
           E                       B  
hoy que entiendo que tú eres el camino,
     F#m             C#m           B  
y tu rumbo el que me guía a la verdad.


        C#m          C#m/C           C#m/B 
Fue tan duro el sufrimiento dentro mío,
      C#m/Bb           A         F#          B
por haber    dejado todo, lo que me diste señor,
        C#m          C#m/C         C#m/B 
y es por eso que otra vez arrepentido,
      C#m/Bb        A     B         E  E? E
quiero comenzar de nuevo,   perdóname.


CORO:
       C#m  B  A           E    E?  E    
Perdóname,        yo he pecado
         C#m  B  A              E    E?  E    
dame tu amor,       borra el pasado
     C#m  B  A         E   E?  E    
ayúdame         a navegar
         F#m       B       C#m
Señor contigo yo quiero estar.


INTRO:

(Misma secuencia que la estrofa 1).

Hoy que entiendo que tú eres el camino
quiero acercarme mas y mas a ti
y aunque las luchas de esta vida quieran derribarme
yo fiel en este camino seguiré.  


CORO:
SOLO GUITARRA:


     C#m B A            E 
-::-------------------------------------::-
-::--17--------14-----------------------::-
-::---------------16-14-16-14-13-14-13--::-
-::-------------------------------------::-
-::-------------------------------------::-
-::-------------------------------------::-



              C#m B A                          E
-::-----14-11-12---------11----------12-14-16-16-14-12-14-12--::-
-::-------------------------14-12-14--------------------------::-
-::--13-------------------------------------------------------::-
-::-----------------------------------------------------------::-
-::-----------------------------------------------------------::-
-::-----------------------------------------------------------::-


nota: este tema es una de sus mejores canciones, disfrútala.
		   
AcordesyTabs.com © 2008 Acordes y Tablaturas para guitarra. Tabs and Chords for guitar. Aviso Legal - Contacto
El uso de este sitio está sujeto a la aceptación de los términos y condiciones (21 usuarios online)