tablaturas, partituras y acordes para guitarra
Busca por banda/artista:
 
y/o título de la canción:
A B C D E F G H I J K L M N O P Q R S T U V W X Y Z 0 1 2 3 4 5 6 7 8 9 / Top 100 tabs
Categorías
Usuarios
usuario:
Darse de alta
password:
Artistas más visitados
Publicidad
TOP acordes y tablaturas de Ismael Serrano


Estás en: Inicio > Letra I > Acordes y tablaturas de Ismael Serrano > Vine del norte
Vine del norte
de Ismael Serrano
Puntúa este acorde/tab:      
(0.6/5)
Reportar este acorde/tab
  Añadir a tus favoritos
  Imprimir
Vine del norte


    Bm              Em7              A                   D    D/C#
|----------------|----------------|-----------------|----------------|
|--------3-------|--------3-------|-------2^3-------|-------3--------|
|------4---4---4-|------0---0---0-|-----2-----2---2-|-----2--------2-|
|----4-------4---|----2-------2---|---2---------2---|---0--------0---| 3 Veces
|--2-------------|----------------|-0---------------|----------0-----|
|----------------|--0-------------1-----------------|----------------|


    Bm              Em7              A                   Dsus4
|----------------|----------------|-----------------|--------0^3--0-----|
|--------3-------|--------3-------|-------2^3-------|------3--------3---|
|------4---4---4-|------0---0---0-|-----2-----2---2-|----2------------2-|
|----4-------4---|----2-------2---|---2---------2---|--0----------------|
|--2-------------|----------------|-0---------------|-------------------|
|----------------|--0-------------|-----------------|-------------------|


   Em7              D/F#              G                 A
|----------------|----------------|----------------|-----------------|
|-------3--------|--------3-------|-------0--------|-------2^3-------|
|-----0---0---0--|------2---2---2-|-----0---0---0--|-----2-----2---2-| 4 Veces
|---2-------2----|----0-------0---|---0-------0----|---2---------2---|
|----------------|--0-------------|----------------|-0---------------|
|-0--------------|----------------|-3--------------|-----------------|


 Despues Conecta con arriba


Bm             Em      A                    D-D/C#
vine del norte buscando una canción y una cruz
Bm             Em      A                    D-D/C#
y allí se cruzó un cometa y en su estela estabas tú
Bm             Em      A                    D-D/C#
en madrid seguiría lloviendo triste como lo dejé
Bm             Em      A                        D-Dsus4-D
y en santiago con tus luces y su noviembre me quemé


Em                      D/F#      G              A
y fue después de un concierto una noche en tu universidad
Em              D/F#      G                A
allí te encontré de nuevo hoy te invito a carretear
Em                 D/F#  G              A
acepto gustoso tu oferta sólo con una condición
Em                  D/F#  G              A
que no se acabe esta noche y que no me enamore yo



andando por la alameda tú me empezaste a contar
causas azares y luchas en estos días y al pasar
por delante de la moneda tú tarareaste a jara
me miraste así tan duro tienes un aire a guevara

y entramos en un bareto y allí alguien cantaba a fito
a este paso me enamoro sólo me falta otro pisco
déjate de historias súbete ahí y cántame una de silvio
sólo si me das un beso y todos cantaron conmigo

salimos del bar borrachos agarrados de la mano
y en la calle como siempre jodiendo andaban los pacos
tú les gritaste asesinos y los dos echamos a correr
tu reías y en tu risa yo me veía caer



pero dónde has estado este tiempo se hace tarde vete a casa
y en tu abrazo a lo lejos creí oír a los parra
cantando para nosotros será mejor que me vaya
ahí quedé sólo gritando sin ti te recuerdo amanda

Bm-Bm/A-Bm/G-A              Bm--A
               te recuerdo amanda


al tiempo llegué a mi norte con una canción y una cruz
con la estela de un cometa con tu mentira y con tu luz
en madrid seguía lloviendo tal como lo dejé
y en santiago tantas cosas hoy me muero por volver

hoy me muero por volver



Transcripción de Rolan.
Tafahi@wanadoo.es
		   
AcordesyTabs.com © 2008 Acordes y Tablaturas para guitarra. Tabs and Chords for guitar. Aviso Legal - Contacto
El uso de este sitio está sujeto a la aceptación de los términos y condiciones (22 usuarios online)