tablaturas, partituras y acordes para guitarra
Busca por banda/artista:
 
y/o título de la canción:
A B C D E F G H I J K L M N O P Q R S T U V W X Y Z 0 1 2 3 4 5 6 7 8 9 / Top 100 tabs
Categorías
Usuarios
usuario:
Darse de alta
password:
Artistas más visitados
Publicidad
TOP acordes y tablaturas de Hamlet


Estás en: Inicio > Letra H > Acordes y tablaturas de Hamlet > Perdoname
Perdoname
de Hamlet
Puntúa este acorde/tab:      
(0.6/5)
Reportar este acorde/tab
  Añadir a tus favoritos
  Imprimir
NOTACION

s= slide
>= mantener el sonido
Harm= harmónico (si va seguido de una línea de puntos
hacerlo hasta donde termine la línea de puntos)
PM= palm muted (si va seguido de una línea de puntos hacerlo
hasta donde termine la línea de puntos)

------------------------------------------------------------
------------------------------------------------------------

AFINACION

Dropped Bb (Bb,F,Bb,Eb,G,C): afina la sexta cuerda de tu
guitarra 6 semitonos menos y el resto de las cuerdas afína-
las 4 semitonos menos

------------------------------------------------------------
------------------------------------------------------------


-----
INTRO
-----


-------------------------------------
-------------------------------------
--4>--4s5--5>--5--5--5s9--9--9--9s4-- (x4)
--2>--2s3--3>--3--3--3s7--7--7--7s2--
--2>--2s3--3>--3--3--3s7--7--7--7s2--
--2>--2s3--3>--3--3--3s7--7--7--7s2--


-----
VERSO
-----


1) (¿Dónde estás?, ¿lejos de aquí?...)


[Con efectos]
------------------
------------------
------------------ (x4)
------------------
--------2>----3>--
--2>--------------


2) (Paaaaaaaaaaz...)


Tocar lo mismo que en Intro


3) (Oigo tu voz, te escucho hablar...)


[Con efectos]
----------------------------
----------------------------
--------------0----------0-- (x4)
-----------4----------4-----
--------2----------3--------
--2>------------------------


4) (Estaaaaaaaaaás...)


Tocar lo mismo que en Intro


----------
PRE-CHORUS
----------


1)


--------------------------------------------
--------------------------------------------
--4--4-----7-----------4--4-----7-----5----- (x3)
--2--2-----5--------0--2--2-----5-----3-----
--2--2-----5--------0--2--2-----5-----3-----
--2--2--0--5--0--0--0--2--2--0--5--0--3--0--
        PM    PM..           PM    PM    PM

--------------------------------------------
--------------------------------------------
--4--4-----7-----------4--4-----3--3--3--3--
--2--2-----5--------0--2--2-----------------
--2--2-----5--------0--2--2-----------------
--2--2--0--5--0--0--0--2--2--0--------------
        PM    PM..           PM Harm......  


2) (Hay esperándo un silencio...)


--------------------------------------------
--------------------------------------------
-------------------------------------------- (x4)
--------------------------------------------
--------------------------------------------
--2--2--0--5--0--0--0--2--2--0--5--0--3--0--


3) (Jamaaaaaaaaaaaás...) (x2)


----------------------------------
----------------------------------
--4--4--4--4--4-------------------
--2--2--2--2--2----0--0--0--0--0--
--2--2--2--2--2----0--0--0--0--0--
--2--2--2--2--2----0--0--0--0--0--

-----------------------------------------
-----------------------------------------
--10--10--10--10--10s7----7--7--7--7-----
---8---8---8---8---8s5----5--5--5--5--0--
---8---8---8---8---8s5----5--5--5--5--0--
---8---8---8---8---8s5----5--5--5--5--0--

----------------------------------
----------------------------------
--4--4--4--4--4-------------------
--2--2--2--2--2----0--0--0--0--0--
--2--2--2--2--2----0--0--0--0--0--
--2--2--2--2--2----0--0--0--0--0--

-----------------------------------------
-----------------------------------------
--10--10--10--10--10s5----5--5--5--5-----
---8---8---8---8---8s3----3--3--3--3--0--
---8---8---8---8---8s3----3--3--3--3--0--
---8---8---8---8---8s3----3--3--3--3--0--


4)


Tocar lo mismo que en la parte 1) del Verso


------
CHORUS
------


1) (Perdónameeeeeeeeeeee...)


-----------------------------------------------
-----------------------------------------------
--4>--4-----11>--11-----12--12--12--12--12----- (x4)
--2>--2--0---9>---9--0--10--10--10--10--10--0--
--2>--2--0---9>---9--0--10--10--10--10--10--0--
--2>--2--0---9>---9--0--10--10--10--10--10--0--


2) (Perdóname, donde quiera que tú estés...) (x4)


----------------------------------------------
-----------0--0--0--------------0--0--0-------
----------------------------------------------
----------------------------------------------
----------------------------------------------
--2--2--2-----------2--2--2--2-----------2s9--

------------------------------------------------
-----------0--0--0------------------0--0--0-----
------------------------------------------------
------------------------------------------------
------------------------------------------------
--9--9--9-----------10--10--10--10-----------0--


3)


------
------
--4>--
--2>--
--2>--
--2>--


------------------------------------------------------------
------------------------------------------------------------
		   
AcordesyTabs.com © 2008 Acordes y Tablaturas para guitarra. Tabs and Chords for guitar. Aviso Legal - Contacto
El uso de este sitio está sujeto a la aceptación de los términos y condiciones (37 usuarios online)