tablaturas, partituras y acordes para guitarra
Busca por banda/artista:
 
y/o título de la canción:
A B C D E F G H I J K L M N O P Q R S T U V W X Y Z 0 1 2 3 4 5 6 7 8 9 / Top 100 tabs
Categorías
Usuarios
usuario:
Darse de alta
password:
Artistas más visitados
Publicidad
TOP acordes y tablaturas de Hamlet


Estás en: Inicio > Letra H > Acordes y tablaturas de Hamlet > Perdón por vivir
Perdón por vivir
de Hamlet
Puntúa este acorde/tab:      
(0.7/5)
Reportar este acorde/tab
  Añadir a tus favoritos
  Imprimir

NOTACION

h= hammer on
p= pull off
bu= bend up
s= slide
>= mantener el sonido
PM= palm muted (si va seguido de una línea de puntos hacerlo
hasta donde termine la línea de puntos)


------------------------------------------------------------
------------------------------------------------------------

AFINACION

Afinación en D (D,G,C,F,A,D): afina todas las cuerdas de la 
guitarra dos semitonos menos

------------------------------------------------------------
------------------------------------------------------------


-----
INTRO
-----


1)


--------------------------------------------------
--------------------------------------------------
--------0-------------0----------0----------0-----
-----2-----2-------2----------0----------0-----0--
----------------1---------------------------------
--0------------------------3----------4-----------


2)


-----------------------------------
-----------------------------------
--------3>-------------------------
--2>----3>--------------6>---------
--2>----1>--------------6>---------
--0>----------3----3----4>----4p0--


3)


------------------------------------------
------------------------------------------
--------4--3------------------------------
--------4--3--------8s9--------8s9--------
--------2--1--------6s7--------8s9--------
--0--0--------0--0--6s7--0--0--6s7--7--7--
  PM..        PM..       PM..       PM..


-----
VERSO (Nací, quién iba a decir...)
-----


Tocar lo mismo que en la parte 3) de la Intro


--------
CHORUS 1 (¡Sufre!)
--------


----------------------------------
----------------------------------
--6--5--4----7--6--5>s8--8--8--8--
--6--5--4----7--6--5>s8--8--8--8--
--4--3--2----5--4--3>s6--6--6--6--
--4--3--2----5--4--3>s6--6--6--6--


----
SOLO
----


Guitarra 1
----------


Tocar lo mismo que en la parte 2) de la Intro


Guitarra 2 [Con efectos]
----------

--19>--
-------
-------
-------
-------
-------

--19p18h19--
------------
------------ (Tocar varias veces)
------------
------------
------------

--5bu>--
--------
--------
--------
--------
--------

--6p5h6--
---------
--------- (Tocar varias veces)
---------
---------
---------

--6s9--
-------
-------
-------
-------
-------

--9p0h9--
---------
--------- (Tocar varias veces)
---------
---------
---------

--9s0--
-------
-------
-------
-------
-------

--0--3--2--2--5--5s0--0--3--2--2--5--5s0--
------------------------------------------
------------------------------------------
------------------------------------------
------------------------------------------
------------------------------------------


-----------
POST-CHORUS (...me he condenado a muerte)
-----------


1)


--------------------------------------------
--------------------------------------------
--------------------------------3--------3--
--2--2----2--2----2--2----------3--------3--
--2--2----2--2----2--2----------1--------1--
--0--0----0--0----0--0----0--0-----0--0-----
                          PM..     PM..

------------------------------
------------------------------
------------------3--4--5--6--
--2--2----2--2----3--4--5--6--
--2--2----2--2----1--2--3--4--
--0--0----0--0----------------


2)


---------------------------------------------------------
---------------------------------------------------------
----------------------------------------------3-------3--
----------------------------------------------3-------3--
----------------------------------------------1-------1--
--0-0--0-0--0--0-0--0-0--0--0-0--0-0--0--0-0-----0-0-----
  PM........................................     PM.

----------------------------------------
----------------------------------------
----------------------------3--4--5--6--
----------------------------3--4--5--6--
----------------------------1--2--3--4--
--0-0--0-0--0--0-0--0-0--0--------------
  PM......................


-----
FINAL
-----


1) (¡Sufre!)


Tocar lo mismo que en Chorus 1


2)


----------------------------------------------
----------------------------------------------
--6--5--4----------------7--6--5>s8--8--------
--6--5--4----------------7--6--5>s8--8--------
--4--3--2----------------5--4--3>s6--6--------
--4--3--2--0--0--0--0----5--4--3>s6--6--0--0--
           PM........                   PM..


3)


Tocar lo mismo que en la parte 3) de la Intro


------------------------------------------------------------
------------------------------------------------------------
		   
AcordesyTabs.com © 2008 Acordes y Tablaturas para guitarra. Tabs and Chords for guitar. Aviso Legal - Contacto
El uso de este sitio está sujeto a la aceptación de los términos y condiciones (76 usuarios online)