tablaturas, partituras y acordes para guitarra
Busca por banda/artista:
 
y/o título de la canción:
A B C D E F G H I J K L M N O P Q R S T U V W X Y Z 0 1 2 3 4 5 6 7 8 9 / Top 100 tabs
Categorías
Usuarios
usuario:
Darse de alta
password:
Artistas más visitados
Publicidad
TOP acordes y tablaturas de La Portuaria


Perfidia
de La Portuaria
Puntúa este acorde/tab:      
(0.5/5)
Reportar este acorde/tab
  Añadir a tus favoritos
  Imprimir
E------------------------------------------
B------------------------------------------
G------------------------------------------
D------------------------------------------
A------------------------------------------
E-9-10-9/-10-10-----9-10-12-10-9-9/-10-9-7-

E------------------------------------------
B------------------------------------------
G------------------------------------------
D------------------------------------------
A------------------------------------------
E-12-10-9-9/-10-9-7-9/-10---10-10-9-----10-12/-14-12-10-

E------------------------------------------
B------------------------------------------
G------------------------------------------
D------------------------------------------
A------------------------------------------
E-12/-14-14-12-11-12/-14-------------------

E------------------------------------------
B------------------------------------------
G------------------------------------------
D------------------------------------------
A------------------------------------------
E-14/-15-14-15-15/-17-17-15-14/-15-14-14-14-12-9/-10-5-5----5-5




Al terminar la primera estrofa: te eh dejado de adorar... biene:

E------------------------------------------
B------------------------------------------
G------------------------------------------
D------------------------------------------
A-----5-7/-9-7-5-7-5-----------------------
E-5-7--------------------------------------

Cuando dice: Te eh buscado donde quiera que yo voy,
 y no te puedo allar...para que quiero otros besos 
si tus labios no me quieren ya besar, 
sobre esa frase biene:

E------------------------------------------
B------------------------------------------
G------------------------------------------
D------------------------------------------
A------------------------------------------
E-2/-3------2/-3------3/-5-3-2-----2-3-2-----2-2/-3----3-

E------------------------------------------
B------------------------------------------
G------------------------------------------
D------------------------------------------
A------------------------------------------
E-3-3/-5-3--3-2----2-3-2-

Y el mar, espejo de mi corazón, las veces que te ha visto llorar, la perfidia de este amor:

E------------------------------------------
B------------------------------------------
G------------------------------------------
D------------------------------------------
A-----5-7/-9-7-5-7-5-----------------------
E-5-7--------------------------------------



Bueno eso es todo, algunas veces van a tener que 
golpear la nota con el dedo en el diapasón, sin golpe de púa, 
y cuando hay una barra ( / ), quiere decir q hay arrastre, 
no estoy seguro de que se escriba asi por eso lo habiso.
		   
AcordesyTabs.com © 2008 Acordes y Tablaturas para guitarra. Tabs and Chords for guitar. Aviso Legal - Contacto
El uso de este sitio está sujeto a la aceptación de los términos y condiciones (28 usuarios online)