tablaturas, partituras y acordes para guitarra
Busca por banda/artista:
 
y/o título de la canción:
A B C D E F G H I J K L M N O P Q R S T U V W X Y Z 0 1 2 3 4 5 6 7 8 9 / Top 100 tabs
Categorías
Usuarios
usuario:
Darse de alta
password:
Artistas más visitados
Publicidad
TOP acordes y tablaturas de Hamlet


Estás en: Inicio > Letra H > Acordes y tablaturas de Hamlet > Vivir es una ilusión
Vivir es una ilusión
de Hamlet
Puntúa este acorde/tab:      
(0.6/5)
Reportar este acorde/tab
  Añadir a tus favoritos
  Imprimir
NOTACION

h= hammer on
p= pull off
b= bend
s= slide
>= mantener el sonido
Harm= harmónico (si va seguido de una línea de puntos
hacerlo hasta donde termine la línea de puntos)
PM= palm muted (si va seguido de una línea de puntos hacerlo
hasta donde termine la línea de puntos)

------------------------------------------------------------
------------------------------------------------------------

AFINACION

Afinación en C (C,F,Bb,Eb,G,C): afina todas las cuerdas de
la guitarra cuatro semitonos menos

------------------------------------------------------------
------------------------------------------------------------


-----
INTRO
-----


Guitarra 1 (x2)
----------

---------------------------------------
---------------------------------------
---------------------------------------
---------------------------------------
---------------------------------------
--0----0----0--0--0--0--0--0--0--0--0--

-------2----2--2--2--2--2--2--2--2--2--
---------------------------------------
--4----4----4--4--4--4--4--4--4--4--4--
--4----4----4--4--4--4--4--4--4--4--4--
--2----2----2--2--2--2--2--2--2--2--2--
---------------------------------------

--3----3----3--3--3--3--3--3--3--3--3--
---------------------------------------
--5----5----5--5--5--5--5--5--5--5--5--
--5----5----5--5--5--5--5--5--5--5--5--
--3----3----3--3--3--3--3--3--3--3--3--
---------------------------------------

--0----0----0--0--0--0--0--0--0--0--0--
---------------------------------------
--2----2----2--2--2--2--2--2--2--2--2--
--2----2----2--2--2--2--2--2--2--2--2--
--0----0----0--0--0--0--0--0--0--0--0--
---------------------------------------


Guitarra 2
----------

--0--0--0--0--0--0--
--------------------
-------------------- (x4)
--------------------
--------------------
--------------------


-----
VERSO
-----


1)


------------------------------------
------------------------------------
------------------------------------
--------------0---------------------
--------------0---------------------
--0--0--0--0-----0--0--0--0--3h5h6--
  PM........     PM........


2) (¡Ah! Escucha...)


--------------------------------------
--------------------------------------
--3--3--3--3--------------------------
--3--3--3--3--7--7--7--7--5--5--5--5--
--1--1--1--1--7--7--7--7--5--5--5--5--
--------------5--5--5--5--3--3--3--3--


--------
CHORUS 1
--------


1) (He salido de un lugar...)


---------------------------------------
---------------------------------------
---------------------------------------
---------------------------------------
---------------------------------------
--0----0----3--3--3--3--3--3--3--3--3--
            Harm.....................

------------2--2--2--2--2--2--2--2--2--
---------------------------------------
--4----4----4--4--4--4--4--4--4--4--4--
--4----4----4--4--4--4--4--4--4--4--4--
--2----2----2--2--2--2--2--2--2--2--2--
---------------------------------------

--3----3----3--3--3--3--3--3--3--3--3--
---------------------------------------
--5----5----5--5--5--5--5--5--5--5--5--
--5----5----5--5--5--5--5--5--5--5--5--
--3----3----3--3--3--3--3--3--3--3--3--
---------------------------------------

--------------------------------------
--------------------------------------
--2--2--2--2--------------------------
--2--2--2--2--------------------------
--0--0--0--0--------------------------
--------------3--3--0--0--3--3--0--0--
              PM....................


2) (He tocado fondo y ya...)


Tocar lo mismo que la guitarra 1 en Intro  


-------
VERSO 2
-------


Tocar lo mismo que en Verso 1


--------
CHORUS 2
--------


1) (He salido de un lugar...)


Tocar lo mismo que en Chorus 1


2) (Ilusión, ilusión...)


---------------------------------------
---------------------------------------
---------------------------------------
---------------------------------------
---------------------------------------
--0----0----0--0--0--0--0--0--0--0--0--

---------------------------------------
---------------------------------------
--4----4----4--4--4--4--4--4--4--4--4--
--4----4----4--4--4--4--4--4--4--4--4--
--2----2----2--2--2--2--2--2--2--2--2--
---------------------------------------

---------------------------------------
---------------------------------------
--5----5----5--5--5--5--5--5--5--5--5--
--5----5----5--5--5--5--5--5--5--5--5--
--3----3----3--3--3--3--3--3--3--3--3--
---------------------------------------

---------------------------------------
---------------------------------------
--7----7----7--7--7--7--7--7--7--7--7--
--7----7----7--7--7--7--7--7--7--7--7--
--5----5----5--5--5--5--5--5--5--5--5--
---------------------------------------

---------------------------------------
---------------------------------------
---------------------------------------
---------------------------------------
---------------------------------------
--0----0----0--0--0--0--0--0--0--0--0--

---------------------------------------
---------------------------------------
--4----4----4--4--4--4--4--4--4--4--4--
--4----4----4--4--4--4--4--4--4--4--4--
--2----2----2--2--2--2--2--2--2--2--2--
---------------------------------------

---------------------------------------
---------------------------------------
--5----5----5--5--5--5--5--5--5--5--5--
--5----5----5--5--5--5--5--5--5--5--5--
--3----3----3--3--3--3--3--3--3--3--3--
---------------------------------------

-------------------------------------------
-------------------------------------------
--2----2----2--2--2--2--2--2--2--2--2------
--2----2----2--2--2--2--2--2--2--2--2--2>--
--0----0----0--0--0--0--0--0--0--0--0--2>--
---------------------------------------0>--


-----------
POST-CHORUS
-----------


1) (x2)


---------------------------------------------------------
---------------------------------------------------------
-----------0---------0-2-2--------------0---------0-2-2--
---------------------------------------------------------
---------------------------------------------------------
--0-0-0-0-----0-0-0---------0--0--0--0-----0-0-0---------

-----------------------------------------------------------
-----------------------------------------------------------
-----------0---------0-2-2--------------0---------0-2-0-2--
-----------------------------------------------------------
-----------------------------------------------------------
--0-0-0-0-----0-0-0---------0--0--0--0-----0-0-0-----------


---------------------------------------
---------------------------------------
--4-4-4-4-4-4-4-4---4p2--2-2-2-2--2p0--
---------------------------------------
---------------------------------------
---------------------------------------


2)


--------------------
--3>----------------
--------2p0---------
---------------5p2--
--------------------
--------------------


3) (¿Puede alguien escuchar?...)


Guitarra 1 (x4)
----------

-------------------------------------------------------
-------------------------------------------------------
------------------------------------------------------- (x2)  
-----------5---------5h7--7-----------5---------5h7--7-
-------------------------------------------------------
--0-0-0-0-----0-0-0----------0-0-0-0-----0-0-0---------
  PM.....     PM...          PM.....     PM...

--------------------------------
--------------------------------
--------------------------------
--9-9-9-9-9-9-9-9--7-7-7-7-7-7--
--------------------------------
--------------------------------


Guitarra 2
----------

-------------------
--3>--3--3s5>--8>--
-------------------
-------------------
-------------------
-------------------

-----------------------------------------
-----------------------------------------
--2--2--2--2p0---------------------------
----------------5--5--5p4--0>--0h4>--2>--
-----------------------------------------
-----------------------------------------

---------------
---------------
---------------
--0>--2s4--2>--
---------------
---------------

----------------------------
----------------------------
--2--4--2--4--2--4--2--4b>--
----------------------------
----------------------------
----------------------------


3) (x2)


------------------------------------
--------------8-----------8s10--10--
------------------------------------ (x2)
--------------5-----------5s7----7--
------------------------------------
--0--0--0--0-----0--0--0------------
  PM........     PM.....

-------------------------------------
--------------8-----------8s10--8s10--
-------------------------------------- 
--------------5-----------5s7---5s7---
--------------------------------------
--0--0--0--0-----0--0--0--------------
  PM........     PM.....

----------------------------------------------------
--12-12-12-12-12-12-12-12--10-10-10-10-10-10--10s0--
----------------------------------------------------
---9--9--9--9--9--9--9--9---7--7--7--7--7--7---7s0--
----------------------------------------------------
----------------------------------------------------


-----
FINAL (Ilusión, ilusión,...)
-----


1)


-------------------------------
-------------------------------
--9--9------------------------- (x4)
--9--9-------------------------
--7--7-------------------------
--------8--8--8s1--1--1--1--0--


2)


-------------------------------
-------------------------------
------------------------------- (x4)
--9--9--10--10--10s3--3--3--3--
--7--7--10--10--10s3--3--3--3--
--7--7---8---8---8s1--1--1--1--


3)


------
------
------
--2>--
--2>--
--0>--


------------------------------------------------------------
------------------------------------------------------------
		   
AcordesyTabs.com © 2008 Acordes y Tablaturas para guitarra. Tabs and Chords for guitar. Aviso Legal - Contacto
El uso de este sitio está sujeto a la aceptación de los términos y condiciones (47 usuarios online)