tablaturas, partituras y acordes para guitarra
Busca por banda/artista:
 
y/o título de la canción:
A B C D E F G H I J K L M N O P Q R S T U V W X Y Z 0 1 2 3 4 5 6 7 8 9 / Top 100 tabs
Categorías
Usuarios
usuario:
Darse de alta
password:
Artistas más visitados
Publicidad
TOP acordes y tablaturas de Hamlet


Estás en: Inicio > Letra H > Acordes y tablaturas de Hamlet > Vivir es una ilusión
Vivir es una ilusión
de Hamlet
Puntúa este acorde/tab:      
(0.2/5)
Reportar este acorde/tab
  Añadir a tus favoritos
  Imprimir
			JOSEBA ORMAETXEATABULADO
     				 PARA GUITARRA
___________________________________________________________________________________________


                                HAMLET:

			 VIVIR ES UNA ILUSIÓN	


AFINACIÓN: C-G-D#-A#-F-C

1er Riff

A# -------------------------4-4--4-4-4-4-4-4-4-4-4--5-5-5-5-5-5-5-5-5-5-
5--2-2-2-2-2-2-2-2-2-2-2-------
F  2-2--2-2-2-2-2-2-2-2-2---2-2--2-2-2-2-2-2-2-2-2--3-3-3-3-3-3-3-3-3-3-
3--0-0-0-0-0-0-0-0-0-0-0-------
C  0-0--0-0-0-0-0-0-0-0-0-----------------------------------------------
-------------------------------

1er Riff-B

C  --0-0-0-0-0-0-0---0-0-0-0-0-0-0----0-0-0-0-0-0-0---0-0-0-0-0-0-0-----
--
G  ---------------------------------------------------------------------
--
D# ---------------------------------------------------------------------
--
A# -----------------4------------(4)-5-----------(5)-2------------------
--
F  2------------(2)-2------------(2)-3-----------(3)-0------------------
--
C  0------------(0)-----------------------------------------------------
--

1er Riff-C

A# -------------------------4-4--4-4-4-4-4-4-4-4-4--5-5-5-5-5-5-5-5-5-5-
5--2-2-2-2-2-2-2-2-2-2-2-----------------
F  2-2--2-2-2-2-2-2-2-2-2---2-2--2-2-2-2-2-2-2-2-2--3-3-3-3-3-3-3-3-3-3-
3--0-0-0-0-0-0-0-0-0-0-0-5-5-5-5-5-5-5-5-
C  0-0--0-0-0-0-0-0-0-0-0-----------------------------------------------
-------------------------3-3-3-3-3-3-3-3-
                                                                        
                         _____P.M_______
2º  Riff

A# --------0---------------
F  2-2-2-2-0-2-2-2-2-------
C  0-0-0-0---0-0-0-0-3-5-6-
   __P.M._   _P.M___

3er Riff

A# -------------------------------------------
F  8-8--8-7-5-5-5-5-5-5---8-8--8-7-5-5-5-5-5-5 
C  6-6--6-5-3-3-3-3-3-3---6-6--6-5-3-3-3-3-3-3

4º Riff

A# ---------------------------------------------------------------------
---------------------------------------------------------------
F  --------10----------10-12-12---------10----------10-12-12---------10-
---------10-12-10-12-14-14-14-14-14-14-14-12-12-12-12-10-10-10-
C  0-0-0-0----0-0-0--0----------0-0-0-0----0-0-0--0----------0-0-0-0----
0-0-0--0-------------------------------------------------------

5º Riff

A# 9-9-9-5-2-2-2-2-2-2-2--9-9-9-5-2-2-2-2-2-2-2-
F  7-7-7-3-0-0-0-0-0-0-0--7-7-7-3-0-0-0-0-0-0-0-
C  ---------------------------------------------

5º Riff-B

A# 9-9-9-5-2-2-2-2-2-2-2--9-9-9-5-2-2-2-2-2-2-2-
F  7-7-7-3-0-0-0-0-0-0-0--7-7-7-3-0-0-0-0-0-0-0-
C  7-7-7-3----------------7-7-7-3---------------



    1er Riff  
    1er Riff-B    
    2º  Riff
    
    Abre la puerta a un nuevo sol 
    he decidido respirar 
    fui mucho tiempo oscuridad 
    esperando respuestas sin yo preguntar. 
    
    3er Riff

    Escucha, escucha, escucha, ayuda. 
    
    1er Riff-C (2 veces)
  
    He salido de un lugar al que nunca debi entrar 
    he caido hasta sentir que ha llovido sin mojar 
    he tocado fondo y ya, ya no debo bajar más 
        vivir es una ilusión. 
    
    2º Riff
 
    Sabes que tu progenitor 
    goza de gran reputación 
    procura entoces no faltar 
    lo siento hijo, asi es la cruda realidad. 
  
    3er Riff

    ¿No puedo, no puedo, no puedo fallarte? 
  
    1er Riff-C (2 veces)
  
    He salido de un lugar al que nunca debi entrar 
    he caido hasta sentir que ha llovido sin mojar 
    he tocado fondo y ya, ya no debo bajar más 
        vivir es una ilusión. 

    1er Riff-B
    4º  Riff (Distorsión suave)
 
    ¿puede alguien escuchar? 
       necesito hablar 
    ¿puede alguien responder? 
        quiero preguntar 
    ¿puede alguien comprender? 
        quiero explicar 
    ¿puede alguien ayudar? 
    
    4º  Riff (Distorsión normal y pisando la 6ª cuerda)
    5º  Riff

    ilusión, ilusión, ilusión, 
    vivir es una ilusión. 

    5º  Riff-B

    ilusión, ilusión, ilusión, 
    vivir es una ilusión. 

    (Para acabar se toca un C de la 6ª cuerda)
		   
AcordesyTabs.com © 2008 Acordes y Tablaturas para guitarra. Tabs and Chords for guitar. Aviso Legal - Contacto
El uso de este sitio está sujeto a la aceptación de los términos y condiciones (44 usuarios online)