tablaturas, partituras y acordes para guitarra
Busca por banda/artista:
 
y/o título de la canción:
A B C D E F G H I J K L M N O P Q R S T U V W X Y Z 0 1 2 3 4 5 6 7 8 9 / Top 100 tabs
Categorías
Usuarios
usuario:
Darse de alta
password:
Artistas más visitados
Publicidad
TOP acordes y tablaturas de los Panchos


Piel Canela
de los Panchos
Puntúa este acorde/tab:      
(0.5/5)
Reportar este acorde/tab
  Añadir a tus favoritos
  Imprimir

 Este requinto es de la vercion donde acompañan a     
 Eydie Gorme  
 Es sencillo sin complicaciones para un buen  
 requintista.
 el tab es claro no tiene errores.

En La Mayor  guitarra (acompañamiento)
En Mi Mayor  Requinto (5 medios tonos arriba)
__      
                                         
   1|----------------5----------------5-----
 ) 2|------------------4----------------4---
   3|---4-4-4-5-6-6-------4-4-4-5-6-6-------
   4|---------------------------------------
 ) 5|---------------------------------------
   6|---------------------------------------
__/


__      
                                         
   1|----------------4----------------4-----
 ) 2|------------------5----------------5---
   3|---4-4-4-5-6-6-------4-4-4-5-6-6-------
   4|---------------------------------------
 ) 5|---------------------------------------
   6|---------------------------------------
__/



__      
                                         
   1|----------------5-------------7-5-4-----------
 ) 2|------------------4-----------------7-----4-5-
   3|---4-4-4-5-6-6-------4-4-4-5----------4-6-----
   4|----------------------------------------------
 ) 5|----------------------------------------------
   6|----------------------------------------------
__/




 
 Alguna duda o sujerencia, intercambios requintos de los tres Reyes
 no duden en mandarme un e-mail.
 Gerardo Lee Calera Reynosa tamps(re5to@Latinmail.com)
		   
AcordesyTabs.com © 2008 Acordes y Tablaturas para guitarra. Tabs and Chords for guitar. Aviso Legal - Contacto
El uso de este sitio está sujeto a la aceptación de los términos y condiciones (21 usuarios online)