tablaturas, partituras y acordes para guitarra
Busca por banda/artista:
 
y/o título de la canción:
A B C D E F G H I J K L M N O P Q R S T U V W X Y Z 0 1 2 3 4 5 6 7 8 9 / Top 100 tabs
Categorías
Usuarios
usuario:
Darse de alta
password:
Artistas más visitados
Publicidad
TOP acordes y tablaturas de Kiss
:: Beth - Kiss


Estás en: Inicio > Letra K > Acordes y tablaturas de Kiss > Rock And Roll All Nite
Rock And Roll All Nite
de Kiss
Puntúa este acorde/tab:      
(0.5/5)
Reportar este acorde/tab
  Añadir a tus favoritos
  Imprimir
e:------3-----3-2~~------------2~~-----------2~~-----------3-3-3-3-3-----------I
B:--3-3-4-2-2-4-2~~------------2~~-----------2~~-----------4-4-4-4-4-----------I
G:------3-----3-2~~-1-1-1-1-1--2~~-1-1-1-1-1-2~~-1-1-1-1-1-3-3-3-3-3-1-1-1-1-1-I
D:--2-2---2-2---x---2-2-2-2-2--x---2-2-2-2-2-x---2-2-2-2-2-----------2-2-2-2-2-I
A:--3-3---3-3---x---1-1-1-1-1--x---1-1-1-1-1-x---1-1-1-1-1-----------1-1-1-1-1-I
E:--------------x--------------x-------------x---------------------------------I
                 (You shows us everything you got, etc.)
Keep on doing that part until you finally get to:

e:-2-2-2-2-2------------------2~~--3-3-3-3-3------------2~--3-3-3-3-3----------
B:-2-2-2-2-2-3-3-3-3-3--------2~~--4-4-4-4-4------------2~--4-4-4-4-4----------
G:-3-3-3-3-3------------------2~~--3-3-3-3-3-1-1-1-1-1--2~--3-3-3-3-3-1-1-1-1-1
D:-4-4-4-4-2-2-2-2-2-2--------x--------------2-2-2-2-2--x-------------2-2-2-2-2
A:-----------3-3-3-3-3--------x--------------1-1-1-1-1--x-------------1-1-1-1-1
E:----------------------------x-------------------------x----------------------
(You keep on shouting, You keep on shouting) (I wanna rock and roll all nite, an
That's the basics of it. If you listen to the song you'll know what parts to pla
		   
AcordesyTabs.com © 2008 Acordes y Tablaturas para guitarra. Tabs and Chords for guitar. Aviso Legal - Contacto
El uso de este sitio está sujeto a la aceptación de los términos y condiciones (31 usuarios online)